  0
SECTION
  2
HEADER
  9
$ACADVER
  1
AC1015
  9
$ACADMAINTVER
 70
     6
  9
$DWGCODEPAGE
  3
ANSI_1252
  9
$INSBASE
 10
0.0
 20
0.0
 30
0.0
  9
$EXTMIN
 10
-84.0
 20
0.0
 30
0.0
  9
$EXTMAX
 10
84.0
 20
31.3
 30
0.0
  9
$LIMMIN
 10
0.0
 20
0.0
  9
$LIMMAX
 10
420.0
 20
297.0
  9
$ORTHOMODE
 70
     0
  9
$REGENMODE
 70
     1
  9
$FILLMODE
 70
     1
  9
$QTEXTMODE
 70
     0
  9
$MIRRTEXT
 70
     1
  9
$LTSCALE
 40
1.0
  9
$ATTMODE
 70
     1
  9
$TEXTSIZE
 40
3.5
  9
$TRACEWID
 40
1.0
  9
$TEXTSTYLE
  7
Standard
  9
$CLAYER
  8
0
  9
$CELTYPE
  6
ByLayer
  9
$CECOLOR
 62
   256
  9
$CELTSCALE
 40
1.0
  9
$DISPSILH
 70
     0
  9
$DIMSCALE
 40
1.0
  9
$DIMASZ
 40
3.302
  9
$DIMEXO
 40
1.0
  9
$DIMDLI
 40
3.75
  9
$DIMRND
 40
0.0
  9
$DIMDLE
 40
0.0
  9
$DIMEXE
 40
1.0
  9
$DIMTP
 40
0.0
  9
$DIMTM
 40
0.0
  9
$DIMTXT
 40
3.5
  9
$DIMCEN
 40
2.5
  9
$DIMTSZ
 40
0.0
  9
$DIMTOL
 70
     0
  9
$DIMLIM
 70
     0
  9
$DIMTIH
 70
     1
  9
$DIMTOH
 70
     1
  9
$DIMSE1
 70
     0
  9
$DIMSE2
 70
     0
  9
$DIMTAD
 70
     1
  9
$DIMZIN
 70
     1
  9
$DIMBLK
  1

  9
$DIMASO
 70
     1
  9
$DIMSHO
 70
     1
  9
$DIMPOST
  1

  9
$DIMAPOST
  1

  9
$DIMALT
 70
     0
  9
$DIMALTD
 70
     3
  9
$DIMALTF
 40
0.0393700787
  9
$DIMLFAC
 40
1.0
  9
$DIMTOFL
 70
     1
  9
$DIMTVP
 40
0.0
  9
$DIMTIX
 70
     0
  9
$DIMSOXD
 70
     0
  9
$DIMSAH
 70
     0
  9
$DIMBLK1
  1

  9
$DIMBLK2
  1

  9
$DIMSTYLE
  2
ISO-25
  9
$DIMCLRD
 70
     0
  9
$DIMCLRE
 70
     0
  9
$DIMCLRT
 70
     0
  9
$DIMTFAC
 40
1.0
  9
$DIMGAP
 40
1.524
  9
$DIMJUST
 70
     0
  9
$DIMSD1
 70
     0
  9
$DIMSD2
 70
     0
  9
$DIMTOLJ
 70
     0
  9
$DIMTZIN
 70
     1
  9
$DIMALTZ
 70
     0
  9
$DIMALTTZ
 70
     0
  9
$DIMUPT
 70
     0
  9
$DIMDEC
 70
     2
  9
$DIMTDEC
 70
     2
  9
$DIMALTU
 70
     2
  9
$DIMALTTD
 70
     3
  9
$DIMTXSTY
  7
Standard
  9
$DIMAUNIT
 70
     0
  9
$DIMADEC
 70
     2
  9
$DIMALTRND
 40
0.0
  9
$DIMAZIN
 70
     0
  9
$DIMDSEP
 70
    44
  9
$DIMATFIT
 70
     3
  9
$DIMFRAC
 70
     0
  9
$DIMLDRBLK
  1

  9
$DIMLUNIT
 70
     2
  9
$DIMLWD
 70
    -2
  9
$DIMLWE
 70
    -2
  9
$DIMTMOVE
 70
     0
  9
$LUNITS
 70
     2
  9
$LUPREC
 70
     2
  9
$SKETCHINC
 40
1.0
  9
$FILLETRAD
 40
10.0
  9
$AUNITS
 70
     0
  9
$AUPREC
 70
     2
  9
$MENU
  1
.
  9
$ELEVATION
 40
0.0
  9
$PELEVATION
 40
0.0
  9
$THICKNESS
 40
0.0
  9
$LIMCHECK
 70
     0
  9
$CHAMFERA
 40
0.0
  9
$CHAMFERB
 40
0.0
  9
$CHAMFERC
 40
0.0
  9
$CHAMFERD
 40
0.0
  9
$SKPOLY
 70
     0
  9
$TDCREATE
 40
2458862.400457674
  9
$TDUCREATE
 40
2458862.400457674
  9
$TDUPDATE
 40
2458862.400491261
  9
$TDUUPDATE
 40
2458862.400491261
  9
$TDINDWG
 40
0.0000000116
  9
$TDUSRTIMER
 40
0.0000000116
  9
$USRTIMER
 70
     1
  9
$ANGBASE
 50
0.0
  9
$ANGDIR
 70
     0
  9
$PDMODE
 70
     0
  9
$PDSIZE
 40
-1.0
  9
$PLINEWID
 40
0.0
  9
$SPLFRAME
 70
     0
  9
$SPLINETYPE
 70
     6
  9
$SPLINESEGS
 70
     8
  9
$HANDSEED
  5
2C6
  9
$SURFTAB1
 70
     6
  9
$SURFTAB2
 70
     6
  9
$SURFTYPE
 70
     6
  9
$SURFU
 70
     6
  9
$SURFV
 70
     6
  9
$UCSBASE
  2

  9
$UCSNAME
  2

  9
$UCSORG
 10
0.0
 20
0.0
 30
0.0
  9
$UCSXDIR
 10
1.0
 20
0.0
 30
0.0
  9
$UCSYDIR
 10
0.0
 20
1.0
 30
0.0
  9
$UCSORTHOREF
  2

  9
$UCSORTHOVIEW
 70
     0
  9
$UCSORGTOP
 10
0.0
 20
0.0
 30
0.0
  9
$UCSORGBOTTOM
 10
0.0
 20
0.0
 30
0.0
  9
$UCSORGLEFT
 10
0.0
 20
0.0
 30
0.0
  9
$UCSORGRIGHT
 10
0.0
 20
0.0
 30
0.0
  9
$UCSORGFRONT
 10
0.0
 20
0.0
 30
0.0
  9
$UCSORGBACK
 10
0.0
 20
0.0
 30
0.0
  9
$PUCSBASE
  2

  9
$PUCSNAME
  2

  9
$PUCSORG
 10
0.0
 20
0.0
 30
0.0
  9
$PUCSXDIR
 10
1.0
 20
0.0
 30
0.0
  9
$PUCSYDIR
 10
0.0
 20
1.0
 30
0.0
  9
$PUCSORTHOREF
  2

  9
$PUCSORTHOVIEW
 70
     0
  9
$PUCSORGTOP
 10
0.0
 20
0.0
 30
0.0
  9
$PUCSORGBOTTOM
 10
0.0
 20
0.0
 30
0.0
  9
$PUCSORGLEFT
 10
0.0
 20
0.0
 30
0.0
  9
$PUCSORGRIGHT
 10
0.0
 20
0.0
 30
0.0
  9
$PUCSORGFRONT
 10
0.0
 20
0.0
 30
0.0
  9
$PUCSORGBACK
 10
0.0
 20
0.0
 30
0.0
  9
$USERI1
 70
     0
  9
$USERI2
 70
     0
  9
$USERI3
 70
     0
  9
$USERI4
 70
     0
  9
$USERI5
 70
     0
  9
$USERR1
 40
0.0
  9
$USERR2
 40
0.0
  9
$USERR3
 40
0.0
  9
$USERR4
 40
0.0
  9
$USERR5
 40
0.0
  9
$WORLDVIEW
 70
     1
  9
$SHADEDGE
 70
     3
  9
$SHADEDIF
 70
    70
  9
$TILEMODE
 70
     1
  9
$MAXACTVP
 70
    64
  9
$PINSBASE
 10
0.0
 20
0.0
 30
0.0
  9
$PLIMCHECK
 70
     0
  9
$PEXTMIN
 10
-84.0
 20
-4.0
 30
0.0
  9
$PEXTMAX
 10
84.0
 20
4.0
 30
0.0
  9
$PLIMMIN
 10
-97.0739299611
 20
-8.9027237354
  9
$PLIMMAX
 10
97.0739299611
 20
128.373540856
  9
$UNITMODE
 70
     0
  9
$VISRETAIN
 70
     1
  9
$PLINEGEN
 70
     0
  9
$PSLTSCALE
 70
     1
  9
$TREEDEPTH
 70
  3020
  9
$CMLSTYLE
  2
Standard
  9
$CMLJUST
 70
     0
  9
$CMLSCALE
 40
20.0
  9
$PROXYGRAPHICS
 70
     1
  9
$MEASUREMENT
 70
     1
  9
$CELWEIGHT
370
    -1
  9
$ENDCAPS
280
     0
  9
$JOINSTYLE
280
     0
  9
$LWDISPLAY
290
     1
  9
$INSUNITS
 70
     4
  9
$HYPERLINKBASE
  1

  9
$STYLESHEET
  1

  9
$XEDIT
290
     1
  9
$CEPSNTYPE
380
     0
  9
$PSTYLEMODE
290
     1
  9
$FINGERPRINTGUID
  2
{030e0f1f-ca6f-4076-98c8-203ed3019651}
  9
$VERSIONGUID
  2
{FAEB1C32-E019-11D5-929B-00C0DF256EC4}
  9
$EXTNAMES
290
     1
  9
$PSVPSCALE
 40
0.0
  9
$OLESTARTUP
290
     0
  0
ENDSEC
  0
SECTION
  2
CLASSES
  0
CLASS
  1
ACDBDICTIONARYWDFLT
  2
AcDbDictionaryWithDefault
  3
ObjectDBX Classes
 90
        0
280
     0
281
     0
  0
CLASS
  1
VISUALSTYLE
  2
AcDbVisualStyle
  3
ObjectDBX Classes
 90
     4095
280
     0
281
     0
  0
CLASS
  1
MATERIAL
  2
AcDbMaterial
  3
ObjectDBX Classes
 90
     1153
280
     0
281
     0
  0
CLASS
  1
SCALE
  2
AcDbScale
  3
ObjectDBX Classes
 90
     1153
280
     0
281
     0
  0
CLASS
  1
TABLESTYLE
  2
AcDbTableStyle
  3
ObjectDBX Classes
 90
     4095
280
     0
281
     0
  0
CLASS
  1
MLEADERSTYLE
  2
AcDbMLeaderStyle
  3
ACDB_MLEADERSTYLE_CLASS
 90
     4095
280
     0
281
     0
  0
CLASS
  1
SUN
  2
AcDbSun
  3
SCENEOE
 90
     1153
280
     0
281
     0
  0
CLASS
  1
ACDBPLACEHOLDER
  2
AcDbPlaceHolder
  3
ObjectDBX Classes
 90
        0
280
     0
281
     0
  0
CLASS
  1
LAYOUT
  2
AcDbLayout
  3
ObjectDBX Classes
 90
        0
280
     0
281
     0
  0
ENDSEC
  0
SECTION
  2
TABLES
  0
TABLE
  2
VPORT
  5
8
330
0
100
AcDbSymbolTable
 70
     1
  0
VPORT
  5
29
330
8
100
AcDbSymbolTableRecord
100
AcDbViewportTableRecord
  2
*Active
 70
     0
 10
0.0
 20
0.0
 11
1.0
 21
1.0
 12
0.0
 22
15.65
 13
0.0
 23
0.0
 14
10.0
 24
10.0
 15
10.0
 25
10.0
 16
0.0
 26
0.0
 36
1.0
 17
0.0
 27
0.0
 37
0.0
 40
31.926
 41
5.3674121406
 42
50.0
 43
0.0
 44
0.0
 50
0.0
 51
0.0
 71
     0
 72
   100
 73
     1
 74
     3
 75
     0
 76
     0
 77
     0
 78
     0
281
     0
 65
     1
110
0.0
120
0.0
130
0.0
111
1.0
121
0.0
131
0.0
112
0.0
122
1.0
132
0.0
 79
     0
146
0.0
  0
ENDTAB
  0
TABLE
  2
LTYPE
  5
5
330
0
100
AcDbSymbolTable
 70
     6
  0
LTYPE
  5
14
330
5
100
AcDbSymbolTableRecord
100
AcDbLinetypeTableRecord
  2
ByBlock
 70
     0
  3

 72
    65
 73
     0
 40
0.0
  0
LTYPE
  5
15
330
5
100
AcDbSymbolTableRecord
100
AcDbLinetypeTableRecord
  2
ByLayer
 70
     0
  3

 72
    65
 73
     0
 40
0.0
  0
LTYPE
  5
16
330
5
100
AcDbSymbolTableRecord
100
AcDbLinetypeTableRecord
  2
Continuous
 70
     0
  3
Solid line
 72
    65
 73
     0
 40
0.0
  0
LTYPE
  5
6E
330
5
100
AcDbSymbolTableRecord
100
AcDbLinetypeTableRecord
  2
HIDDEN
 70
     0
  3
Hidden __ __ __ __ __ __ __ __ __ __ __ __ __ __
 72
    65
 73
     2
 40
1.905
 49
1.27
 74
     0
 49
-0.635
 74
     0
  0
LTYPE
  5
6F
330
5
100
AcDbSymbolTableRecord
100
AcDbLinetypeTableRecord
  2
PHANTOM
 70
     0
  3
Phantom ______  __  __  ______  __  __  ______
 72
    65
 73
     6
 40
12.7
 49
6.35
 74
     0
 49
-1.27
 74
     0
 49
1.27
 74
     0
 49
-1.27
 74
     0
 49
1.27
 74
     0
 49
-1.27
 74
     0
  0
LTYPE
  5
70
330
5
100
AcDbSymbolTableRecord
100
AcDbLinetypeTableRecord
  2
CENTER
 70
     0
  3
Center ____ _ ____ _ ____ _ ____ _ ____ _ ____
 72
    65
 73
     4
 40
10.16
 49
6.35
 74
     0
 49
-1.27
 74
     0
 49
1.27
 74
     0
 49
-1.27
 74
     0
  0
LTYPE
  5
71
330
5
100
AcDbSymbolTableRecord
100
AcDbLinetypeTableRecord
  2
CENTERX2
 70
     0
  3
Center (2x) ________  __  ________  __  _____
 72
    65
 73
     4
 40
20.32
 49
12.7
 74
     0
 49
-2.54
 74
     0
 49
2.54
 74
     0
 49
-2.54
 74
     0
  0
LTYPE
  5
72
330
5
100
AcDbSymbolTableRecord
100
AcDbLinetypeTableRecord
  2
DOT2
 70
     0
  3
Dot (.5x) ........................................
 72
    65
 73
     2
 40
0.635
 49
0.0
 74
     0
 49
-0.635
 74
     0
  0
ENDTAB
  0
TABLE
  2
LAYER
  5
2
330
0
100
AcDbSymbolTable
 70
     1
  0
LAYER
  5
10
330
2
100
AcDbSymbolTableRecord
100
AcDbLayerTableRecord
  2
0
 70
     0
 62
     7
  6
Continuous
370
    -3
390
F
  0
ENDTAB
  0
TABLE
  2
STYLE
  5
3
330
0
100
AcDbSymbolTable
 70
     1
  0
STYLE
  5
11
330
3
100
AcDbSymbolTableRecord
100
AcDbTextStyleTableRecord
  2
Standard
 70
     0
 40
0.0
 41
1.0
 50
0.0
 71
     0
 42
3.5
  3
txt
  4

  0
ENDTAB
  0
TABLE
  2
VIEW
  5
6
330
0
100
AcDbSymbolTable
 70
     0
  0
ENDTAB
  0
TABLE
  2
UCS
  5
7
330
0
100
AcDbSymbolTable
 70
     0
  0
ENDTAB
  0
TABLE
  2
APPID
  5
9
330
0
100
AcDbSymbolTable
 70
     1
  0
APPID
  5
12
330
9
100
AcDbSymbolTableRecord
100
AcDbRegAppTableRecord
  2
ACAD
 70
     0
  0
ENDTAB
  0
TABLE
  2
DIMSTYLE
  5
A
330
0
100
AcDbSymbolTable
 70
     1
100
AcDbDimStyleTable
  0
DIMSTYLE
105
27
330
A
100
AcDbSymbolTableRecord
100
AcDbDimStyleTableRecord
  2
ISO-25
 70
     0
 41
2.5
 42
0.625
 43
3.75
 44
1.25
 73
     0
 74
     0
 77
     1
 78
     8
140
2.5
141
2.5
143
0.0393700787
147
0.625
171
     3
172
     1
178
     0
271
     2
272
     2
274
     3
278
    44
283
     0
284
     8
340
11
  0
ENDTAB
  0
TABLE
  2
BLOCK_RECORD
  5
1
330
0
100
AcDbSymbolTable
 70
     7
  0
BLOCK_RECORD
  5
1F
330
1
100
AcDbSymbolTableRecord
100
AcDbBlockTableRecord
  2
*Model_Space
340
22
  0
BLOCK_RECORD
  5
1B
330
1
100
AcDbSymbolTableRecord
100
AcDbBlockTableRecord
  2
*Paper_Space
340
1E
  0
BLOCK_RECORD
  5
23
330
1
100
AcDbSymbolTableRecord
100
AcDbBlockTableRecord
  2
*Paper_Space0
340
26
  0
BLOCK_RECORD
  5
FD
330
1
100
AcDbSymbolTableRecord
100
AcDbBlockTableRecord
  2
*Paper_Space1
340
FE
  0
BLOCK_RECORD
  5
119
330
1
100
AcDbSymbolTableRecord
100
AcDbBlockTableRecord
  2
*Paper_Space2
340
11A
  0
BLOCK_RECORD
  5
135
330
1
100
AcDbSymbolTableRecord
100
AcDbBlockTableRecord
  2
*Paper_Space3
340
136
  0
BLOCK_RECORD
  5
171
330
1
100
AcDbSymbolTableRecord
100
AcDbBlockTableRecord
  2
*Paper_Space4
340
172
  0
BLOCK_RECORD
  5
1E2
330
1
100
AcDbSymbolTableRecord
100
AcDbBlockTableRecord
  2
*Paper_Space5
340
1E3
  0
BLOCK_RECORD
  5
24E
330
1
100
AcDbSymbolTableRecord
100
AcDbBlockTableRecord
  2
*Paper_Space6
340
24F
  0
ENDTAB
  0
ENDSEC
  0
SECTION
  2
BLOCKS
  0
BLOCK
  5
20
330
1F
100
AcDbEntity
  8
0
100
AcDbBlockBegin
  2
*Model_Space
 70
     0
 10
0.0
 20
0.0
 30
0.0
  3
*Model_Space
  1

  0
ENDBLK
  5
21
330
1F
100
AcDbEntity
  8
0
100
AcDbBlockEnd
  0
BLOCK
  5
1C
330
1B
100
AcDbEntity
 67
     1
  8
0
100
AcDbBlockBegin
  2
*Paper_Space
 70
     0
 10
0.0
 20
0.0
 30
0.0
  3
*Paper_Space
  1

  0
ENDBLK
  5
1D
330
1B
100
AcDbEntity
 67
     1
  8
0
100
AcDbBlockEnd
  0
BLOCK
  5
24
330
23
100
AcDbEntity
  8
0
100
AcDbBlockBegin
  2
*Paper_Space0
 70
     0
 10
0.0
 20
0.0
 30
0.0
  3
*Paper_Space0
  1

  0
LINE
  5
F1
330
23
100
AcDbEntity
  8
0
  6
Continuous
 62
     7
370
    25
100
AcDbLine
 10
-83.0
 20
4.0
 30
0.0
 11
83.0
 21
4.0
 31
0.0
  0
LINE
  5
F2
330
23
100
AcDbEntity
  8
0
  6
Continuous
 62
     7
370
    25
100
AcDbLine
 10
84.0
 20
3.0
 30
0.0
 11
-84.0
 21
3.0
 31
0.0
  0
LINE
  5
F3
330
23
100
AcDbEntity
  8
0
  6
Continuous
 62
     7
370
    25
100
AcDbLine
 10
-84.0
 20
-3.0
 30
0.0
 11
84.0
 21
-3.0
 31
0.0
  0
LINE
  5
F4
330
23
100
AcDbEntity
  8
0
  6
Continuous
 62
     7
370
    25
100
AcDbLine
 10
-83.0
 20
4.0
 30
0.0
 11
-83.0
 21
-4.0
 31
0.0
  0
LINE
  5
F5
330
23
100
AcDbEntity
  8
0
  6
Continuous
 62
     7
370
    25
100
AcDbLine
 10
83.0
 20
-4.0
 30
0.0
 11
83.0
 21
4.0
 31
0.0
  0
LINE
  5
F6
330
23
100
AcDbEntity
  8
0
  6
Continuous
 62
     7
370
    25
100
AcDbLine
 10
83.0
 20
-4.0
 30
0.0
 11
-83.0
 21
-4.0
 31
0.0
  0
LINE
  5
F7
330
23
100
AcDbEntity
  8
0
  6
Continuous
 62
     7
370
    25
100
AcDbLine
 10
-84.0
 20
-3.0
 30
0.0
 11
-84.0
 21
3.0
 31
0.0
  0
LINE
  5
F8
330
23
100
AcDbEntity
  8
0
  6
Continuous
 62
     7
370
    25
100
AcDbLine
 10
84.0
 20
3.0
 30
0.0
 11
84.0
 21
-3.0
 31
0.0
  0
ARC
  5
F9
330
23
100
AcDbEntity
  8
0
  6
Continuous
 62
     7
370
    25
100
AcDbCircle
 10
-83.0
 20
3.0
 30
0.0
 40
0.9999999999999885
100
AcDbArc
 50
90.0
 51
180.0
  0
ARC
  5
FA
330
23
100
AcDbEntity
  8
0
  6
Continuous
 62
     7
370
    25
100
AcDbCircle
 10
-83.0
 20
-3.0
 30
0.0
 40
0.9999999999999885
100
AcDbArc
 50
180.0
 51
270.0
  0
ARC
  5
FB
330
23
100
AcDbEntity
  8
0
  6
Continuous
 62
     7
370
    25
100
AcDbCircle
 10
83.0
 20
-3.0
 30
0.0
 40
0.9999999999999858
100
AcDbArc
 50
270.0
 51
0.0
  0
ARC
  5
FC
330
23
100
AcDbEntity
  8
0
  6
Continuous
 62
     7
370
    25
100
AcDbCircle
 10
83.0
 20
3.0
 30
0.0
 40
0.9999999999999929
100
AcDbArc
 50
0.0
 51
90.0
  0
VIEWPORT
  5
2B8
330
23
100
AcDbEntity
  8
0
100
AcDbViewport
 10
0.0
 20
0.0
 30
0.0
 40
205.6
 41
156.0
 68
     1
 69
     1
 12
0.0
 22
15.65
 13
0.0
 23
0.0
 14
10.0
 24
10.0
 15
10.0
 25
10.0
 16
0.0
 26
0.0
 36
1.0
 17
0.0
 27
0.0
 37
0.0
 42
50.0
 43
0.0
 44
0.0
 45
130.020233463
 50
0.0
 51
0.0
 72
   100
 90
   557152
  1

281
     0
 71
     1
 74
     0
110
0.0
120
0.0
130
0.0
111
1.0
121
0.0
131
0.0
112
0.0
122
1.0
132
0.0
 79
     0
146
0.0
  0
ENDBLK
  5
25
330
23
100
AcDbEntity
  8
0
100
AcDbBlockEnd
  0
BLOCK
  5
FF
330
FD
100
AcDbEntity
  8
0
100
AcDbBlockBegin
  2
*Paper_Space1
 70
     0
 10
0.0
 20
0.0
 30
0.0
  3
*Paper_Space1
  1

  0
LINE
  5
110
330
FD
100
AcDbEntity
  8
0
  6
Continuous
 62
     7
370
    25
100
AcDbLine
 10
0.0
 20
3.0
 30
0.0
 11
-31.3
 21
3.0
 31
0.0
  0
LINE
  5
111
330
FD
100
AcDbEntity
  8
0
  6
Continuous
 62
     7
370
    25
100
AcDbLine
 10
-30.3
 20
4.0
 30
0.0
 11
0.0
 21
4.0
 31
0.0
  0
LINE
  5
112
330
FD
100
AcDbEntity
  8
0
  6
Continuous
 62
     7
370
    25
100
AcDbLine
 10
0.0
 20
-4.0
 30
0.0
 11
-30.3
 21
-4.0
 31
0.0
  0
LINE
  5
113
330
FD
100
AcDbEntity
  8
0
  6
Continuous
 62
     7
370
    25
100
AcDbLine
 10
-30.3
 20
4.0
 30
0.0
 11
-30.3
 21
-4.0
 31
0.0
  0
LINE
  5
114
330
FD
100
AcDbEntity
  8
0
  6
Continuous
 62
     7
370
    25
100
AcDbLine
 10
-31.3
 20
-3.0
 30
0.0
 11
0.0
 21
-3.0
 31
0.0
  0
LINE
  5
115
330
FD
100
AcDbEntity
  8
0
  6
Continuous
 62
     7
370
    25
100
AcDbLine
 10
0.0
 20
-4.0
 30
0.0
 11
0.0
 21
4.0
 31
0.0
  0
LINE
  5
116
330
FD
100
AcDbEntity
  8
0
  6
Continuous
 62
     7
370
    25
100
AcDbLine
 10
-31.3
 20
-3.0
 30
0.0
 11
-31.3
 21
3.0
 31
0.0
  0
ARC
  5
117
330
FD
100
AcDbEntity
  8
0
  6
Continuous
 62
     7
370
    25
100
AcDbCircle
 10
-30.3
 20
3.0
 30
0.0
 40
1.0
100
AcDbArc
 50
90.0
 51
180.0
  0
ARC
  5
118
330
FD
100
AcDbEntity
  8
0
  6
Continuous
 62
     7
370
    25
100
AcDbCircle
 10
-30.3
 20
-3.0
 30
0.0
 40
1.000000000000001
100
AcDbArc
 50
180.0
 51
270.0
  0
VIEWPORT
  5
2BA
330
FD
100
AcDbEntity
  8
0
100
AcDbViewport
 10
0.0
 20
0.0
 30
0.0
 40
205.6
 41
156.0
 68
     1
 69
     1
 12
0.0
 22
15.65
 13
0.0
 23
0.0
 14
10.0
 24
10.0
 15
10.0
 25
10.0
 16
0.0
 26
0.0
 36
1.0
 17
0.0
 27
0.0
 37
0.0
 42
50.0
 43
0.0
 44
0.0
 45
130.020233463
 50
0.0
 51
0.0
 72
   100
 90
   557152
  1

281
     0
 71
     1
 74
     0
110
0.0
120
0.0
130
0.0
111
1.0
121
0.0
131
0.0
112
0.0
122
1.0
132
0.0
 79
     0
146
0.0
  0
ENDBLK
  5
100
330
FD
100
AcDbEntity
  8
0
100
AcDbBlockEnd
  0
BLOCK
  5
11B
330
119
100
AcDbEntity
  8
0
100
AcDbBlockBegin
  2
*Paper_Space2
 70
     0
 10
0.0
 20
0.0
 30
0.0
  3
*Paper_Space2
  1

  0
LINE
  5
12C
330
119
100
AcDbEntity
  8
0
  6
Continuous
 62
     7
370
    25
100
AcDbLine
 10
0.0
 20
4.0
 30
0.0
 11
30.3
 21
4.0
 31
0.0
  0
LINE
  5
12D
330
119
100
AcDbEntity
  8
0
  6
Continuous
 62
     7
370
    25
100
AcDbLine
 10
30.3
 20
-4.0
 30
0.0
 11
30.3
 21
4.0
 31
0.0
  0
LINE
  5
12E
330
119
100
AcDbEntity
  8
0
  6
Continuous
 62
     7
370
    25
100
AcDbLine
 10
31.3
 20
3.0
 30
0.0
 11
0.0
 21
3.0
 31
0.0
  0
LINE
  5
12F
330
119
100
AcDbEntity
  8
0
  6
Continuous
 62
     7
370
    25
100
AcDbLine
 10
0.0
 20
-4.0
 30
0.0
 11
0.0
 21
4.0
 31
0.0
  0
LINE
  5
130
330
119
100
AcDbEntity
  8
0
  6
Continuous
 62
     7
370
    25
100
AcDbLine
 10
0.0
 20
-3.0
 30
0.0
 11
31.3
 21
-3.0
 31
0.0
  0
LINE
  5
131
330
119
100
AcDbEntity
  8
0
  6
Continuous
 62
     7
370
    25
100
AcDbLine
 10
30.3
 20
-4.0
 30
0.0
 11
0.0
 21
-4.0
 31
0.0
  0
LINE
  5
132
330
119
100
AcDbEntity
  8
0
  6
Continuous
 62
     7
370
    25
100
AcDbLine
 10
31.3
 20
3.0
 30
0.0
 11
31.3
 21
-3.0
 31
0.0
  0
ARC
  5
133
330
119
100
AcDbEntity
  8
0
  6
Continuous
 62
     7
370
    25
100
AcDbCircle
 10
30.3
 20
-3.0
 30
0.0
 40
1.000000000000007
100
AcDbArc
 50
270.0
 51
0.0
  0
ARC
  5
134
330
119
100
AcDbEntity
  8
0
  6
Continuous
 62
     7
370
    25
100
AcDbCircle
 10
30.3
 20
3.0
 30
0.0
 40
1.000000000000007
100
AcDbArc
 50
0.0
 51
90.0
  0
VIEWPORT
  5
2BC
330
119
100
AcDbEntity
  8
0
100
AcDbViewport
 10
0.0
 20
0.0
 30
0.0
 40
205.6
 41
156.0
 68
     1
 69
     1
 12
0.0
 22
15.65
 13
0.0
 23
0.0
 14
10.0
 24
10.0
 15
10.0
 25
10.0
 16
0.0
 26
0.0
 36
1.0
 17
0.0
 27
0.0
 37
0.0
 42
50.0
 43
0.0
 44
0.0
 45
130.020233463
 50
0.0
 51
0.0
 72
   100
 90
   557152
  1

281
     0
 71
     1
 74
     0
110
0.0
120
0.0
130
0.0
111
1.0
121
0.0
131
0.0
112
0.0
122
1.0
132
0.0
 79
     0
146
0.0
  0
ENDBLK
  5
11C
330
119
100
AcDbEntity
  8
0
100
AcDbBlockEnd
  0
BLOCK
  5
137
330
135
100
AcDbEntity
  8
0
100
AcDbBlockBegin
  2
*Paper_Space3
 70
     0
 10
0.0
 20
0.0
 30
0.0
  3
*Paper_Space3
  1

  0
LINE
  5
159
330
135
100
AcDbEntity
  8
0
  6
Continuous
 62
     7
370
    25
100
AcDbLine
 10
-76.0
 20
0.0
 30
0.0
 11
-76.0
 21
-22.3
 31
0.0
  0
LINE
  5
15A
330
135
100
AcDbEntity
  8
0
  6
Continuous
 62
     7
370
    25
100
AcDbLine
 10
-77.0
 20
-24.3
 30
0.0
 11
-76.0
 21
-22.3
 31
0.0
  0
LINE
  5
15B
330
135
100
AcDbEntity
  8
0
  6
Continuous
 62
     7
370
    25
100
AcDbLine
 10
-77.0
 20
-24.3
 30
0.0
 11
-77.0
 21
0.0
 31
0.0
  0
LINE
  5
15C
330
135
100
AcDbEntity
  8
0
  6
Continuous
 62
     7
370
    25
100
AcDbLine
 10
-76.0
 20
0.0
 30
0.0
 11
-84.0
 21
0.0
 31
0.0
  0
LINE
  5
15D
330
135
100
AcDbEntity
  8
0
  6
Continuous
 62
     7
370
    25
100
AcDbLine
 10
83.0
 20
-31.3
 30
0.0
 11
83.0
 21
0.0
 31
0.0
  0
LINE
  5
15E
330
135
100
AcDbEntity
  8
0
  6
Continuous
 62
     7
370
    25
100
AcDbLine
 10
83.0
 20
-31.3
 30
0.0
 11
-83.0
 21
-31.3
 31
0.0
  0
LINE
  5
15F
330
135
100
AcDbEntity
  8
0
  6
Continuous
 62
     7
370
    25
100
AcDbLine
 10
-83.0
 20
0.0
 30
0.0
 11
-83.0
 21
-31.3
 31
0.0
  0
LINE
  5
160
330
135
100
AcDbEntity
  8
0
  6
Continuous
 62
     7
370
    25
100
AcDbLine
 10
-84.0
 20
-30.3
 30
0.0
 11
84.0
 21
-30.3
 31
0.0
  0
LINE
  5
161
330
135
100
AcDbEntity
  8
0
  6
Continuous
 62
     7
370
    25
100
AcDbLine
 10
-83.0
 20
-30.3
 30
0.0
 11
-77.0
 21
-24.3
 31
0.0
  0
LINE
  5
162
330
135
100
AcDbEntity
  8
0
  6
Continuous
 62
     7
370
    25
100
AcDbLine
 10
77.0
 20
-24.3
 30
0.0
 11
-77.0
 21
-24.3
 31
0.0
  0
LINE
  5
163
330
135
100
AcDbEntity
  8
0
  6
Continuous
 62
     7
370
    25
100
AcDbLine
 10
83.0
 20
-30.3
 30
0.0
 11
77.0
 21
-24.3
 31
0.0
  0
LINE
  5
164
330
135
100
AcDbEntity
  8
0
  6
Continuous
 62
     7
370
    25
100
AcDbLine
 10
77.0
 20
0.0
 30
0.0
 11
77.0
 21
-24.3
 31
0.0
  0
LINE
  5
165
330
135
100
AcDbEntity
  8
0
  6
Continuous
 62
     7
370
    25
100
AcDbLine
 10
76.0
 20
0.0
 30
0.0
 11
84.0
 21
0.0
 31
0.0
  0
LINE
  5
166
330
135
100
AcDbEntity
  8
0
  6
Continuous
 62
     7
370
    25
100
AcDbLine
 10
84.0
 20
0.0
 30
0.0
 11
84.0
 21
-30.3
 31
0.0
  0
LINE
  5
167
330
135
100
AcDbEntity
  8
0
  6
Continuous
 62
     7
370
    25
100
AcDbLine
 10
-75.0
 20
-23.3
 30
0.0
 11
-77.0
 21
-24.3
 31
0.0
  0
LINE
  5
168
330
135
100
AcDbEntity
  8
0
  6
Continuous
 62
     7
370
    25
100
AcDbLine
 10
-75.0
 20
-23.3
 30
0.0
 11
75.0
 21
-23.3
 31
0.0
  0
LINE
  5
169
330
135
100
AcDbEntity
  8
0
  6
Continuous
 62
     7
370
    25
100
AcDbLine
 10
77.0
 20
-24.3
 30
0.0
 11
75.0
 21
-23.3
 31
0.0
  0
LINE
  5
16A
330
135
100
AcDbEntity
  8
0
  6
Continuous
 62
     7
370
    25
100
AcDbLine
 10
76.0
 20
-22.3
 30
0.0
 11
77.0
 21
-24.3
 31
0.0
  0
LINE
  5
16B
330
135
100
AcDbEntity
  8
0
  6
Continuous
 62
     7
370
    25
100
AcDbLine
 10
76.0
 20
-22.3
 30
0.0
 11
76.0
 21
0.0
 31
0.0
  0
LINE
  5
16C
330
135
100
AcDbEntity
  8
0
  6
Continuous
 62
     7
370
    25
100
AcDbLine
 10
-84.0
 20
-30.3
 30
0.0
 11
-84.0
 21
0.0
 31
0.0
  0
ARC
  5
16D
330
135
100
AcDbEntity
  8
0
  6
Continuous
 62
     7
370
    25
100
AcDbCircle
 10
-75.0
 20
-22.3
 30
0.0
 40
1.000000000000014
100
AcDbArc
 50
180.0
 51
270.0
  0
ARC
  5
16E
330
135
100
AcDbEntity
  8
0
  6
Continuous
 62
     7
370
    25
100
AcDbCircle
 10
83.0
 20
-30.3
 30
0.0
 40
0.9999999999999858
100
AcDbArc
 50
270.0
 51
0.0
  0
ARC
  5
16F
330
135
100
AcDbEntity
  8
0
  6
Continuous
 62
     7
370
    25
100
AcDbCircle
 10
75.0
 20
-22.3
 30
0.0
 40
1.000000000000014
100
AcDbArc
 50
270.0
 51
0.0
  0
ARC
  5
170
330
135
100
AcDbEntity
  8
0
  6
Continuous
 62
     7
370
    25
100
AcDbCircle
 10
-83.0
 20
-30.3
 30
0.0
 40
0.9999999999999858
100
AcDbArc
 50
180.0
 51
270.0
  0
VIEWPORT
  5
2BE
330
135
100
AcDbEntity
  8
0
100
AcDbViewport
 10
0.0
 20
0.0
 30
0.0
 40
205.6
 41
156.0
 68
     1
 69
     1
 12
0.0
 22
15.65
 13
0.0
 23
0.0
 14
10.0
 24
10.0
 15
10.0
 25
10.0
 16
0.0
 26
0.0
 36
1.0
 17
0.0
 27
0.0
 37
0.0
 42
50.0
 43
0.0
 44
0.0
 45
130.020233463
 50
0.0
 51
0.0
 72
   100
 90
   557152
  1

281
     0
 71
     1
 74
     0
110
0.0
120
0.0
130
0.0
111
1.0
121
0.0
131
0.0
112
0.0
122
1.0
132
0.0
 79
     0
146
0.0
  0
ENDBLK
  5
138
330
135
100
AcDbEntity
  8
0
100
AcDbBlockEnd
  0
BLOCK
  5
173
330
171
100
AcDbEntity
  8
0
100
AcDbBlockBegin
  2
*Paper_Space4
 70
     0
 10
0.0
 20
0.0
 30
0.0
  3
*Paper_Space4
  1

  0
LWPOLYLINE
  5
19A
330
171
100
AcDbEntity
  8
0
  6
Continuous
 62
     7
370
    25
100
AcDbPolyline
 90
       10
 70
   128
 43
0.0
 10
-71.6299169342
 20
24.7785169941
 10
-71.2615535223
 20
24.8369957948
 10
-70.9043826463
 20
24.8688875674
 10
-70.5692567624
 20
24.8732232965
 10
-70.2663585012
 20
24.8498712431
 10
-70.0048912729
 20
24.7995409476
 10
-69.7927996271
 20
24.7237616705
 10
-69.636527861
 20
24.6248359268
 10
-69.5408242132
 20
24.5057695252
 10
-69.5085965906
 20
24.3701802381
  0
LINE
  5
1AC
330
171
100
AcDbEntity
  8
0
  6
Continuous
 62
     7
370
    25
100
AcDbLine
 10
-80.6151576748
 20
18.1966824485
 30
0.0
 11
36.7645680022
 21
-49.5651908328
 31
0.0
  0
LINE
  5
1AD
330
171
100
AcDbEntity
  8
0
  6
Continuous
 62
     7
370
    25
100
AcDbLine
 10
37.7644867348
 20
-49.5651908328
 30
0.0
 11
59.1898222048
 21
-37.1966079387
 31
0.0
  0
LINE
  5
1AE
330
171
100
AcDbEntity
  8
0
  6
Continuous
 62
     7
370
    25
100
AcDbLine
 10
36.7645680022
 20
-37.4581587683
 30
0.0
 11
-70.1300388352
 21
24.2507842471
 31
0.0
  0
LINE
  5
1AF
330
171
100
AcDbEntity
  8
0
  6
Continuous
 62
     7
370
    25
100
AcDbLine
 10
53.947262785
 20
-28.1160410071
 30
0.0
 11
37.7644867348
 21
-37.4581587683
 31
0.0
  0
LINE
  5
1B0
330
171
100
AcDbEntity
  8
0
  6
Continuous
 62
     7
370
    25
100
AcDbLine
 10
-81.1151983084
 20
23.9619761822
 30
0.0
 11
-81.1151983084
 21
19.0627313109
 31
0.0
  0
LINE
  5
1B1
330
171
100
AcDbEntity
  8
0
  6
Continuous
 62
     7
370
    25
100
AcDbLine
 10
-59.1898222048
 20
37.1966079387
 30
0.0
 11
-80.6151576748
 21
24.8280250446
 31
0.0
  0
LINE
  5
1B2
330
171
100
AcDbEntity
  8
0
  6
Continuous
 62
     7
370
    25
100
AcDbLine
 10
-65.3864240947
 20
21.5123537465
 30
0.0
 11
-53.947262785
 21
28.1160410071
 31
0.0
  0
LINE
  5
1B3
330
171
100
AcDbEntity
  8
0
  6
Continuous
 62
     7
370
    25
100
AcDbLine
 10
36.5574205873
 20
-49.1073460263
 30
0.0
 11
36.5574205873
 21
-44.208101155
 31
0.0
  0
LINE
  5
1B4
330
171
100
AcDbEntity
  8
0
  6
Continuous
 62
     7
370
    25
100
AcDbLine
 10
37.9716341497
 20
-44.208101155
 30
0.0
 11
37.9716341497
 21
-49.1073460263
 31
0.0
  0
LINE
  5
1B5
330
171
100
AcDbEntity
  8
0
  6
Continuous
 62
     7
370
    25
100
AcDbLine
 10
-80.1151983084
 20
24.7785169941
 30
0.0
 11
37.2645273685
 21
-42.9833562872
 31
0.0
  0
LINE
  5
1B6
330
171
100
AcDbEntity
  8
0
  6
Continuous
 62
     7
370
    25
100
AcDbLine
 10
36.5574205873
 20
-44.208101155
 30
0.0
 11
-80.8223050896
 21
23.5537721263
 31
0.0
  0
LINE
  5
1B7
330
171
100
AcDbEntity
  8
0
  6
Continuous
 62
     7
370
    25
100
AcDbLine
 10
59.3969696197
 20
-31.8395182609
 30
0.0
 11
37.9716341497
 21
-44.208101155
 31
0.0
  0
LINE
  5
1B8
330
171
100
AcDbEntity
  8
0
  6
Continuous
 62
     7
370
    25
100
AcDbLine
 10
37.2645273685
 20
-42.9833562872
 30
0.0
 11
58.6898628385
 21
-30.6147733931
 31
0.0
  0
LINE
  5
1B9
330
171
100
AcDbEntity
  8
0
  6
Continuous
 62
     7
370
    25
100
AcDbLine
 10
-80.8223050896
 20
23.5537721263
 30
0.0
 11
-80.8223050896
 21
18.654527255
 31
0.0
  0
LINE
  5
1BA
330
171
100
AcDbEntity
  8
0
  6
Continuous
 62
     7
370
    25
100
AcDbLine
 10
-80.8223050896
 20
18.654527255
 30
0.0
 11
36.5574205873
 21
-49.1073460263
 31
0.0
  0
LINE
  5
1BB
330
171
100
AcDbEntity
  8
0
  6
Continuous
 62
     7
370
    25
100
AcDbLine
 10
59.3969696197
 20
-36.7387631322
 30
0.0
 11
59.3969696197
 21
-31.8395182609
 31
0.0
  0
LINE
  5
1BC
330
171
100
AcDbEntity
  8
0
  6
Continuous
 62
     7
370
    25
100
AcDbLine
 10
37.9716341497
 20
-49.1073460263
 30
0.0
 11
59.3969696197
 21
-36.7387631322
 31
0.0
  0
LINE
  5
1BD
330
171
100
AcDbEntity
  8
0
  6
Continuous
 62
     7
370
    25
100
AcDbLine
 10
-71.6299169342
 20
24.7785169941
 30
0.0
 11
-80.1151983084
 21
24.7785169941
 31
0.0
  0
LINE
  5
1BE
330
171
100
AcDbEntity
  8
0
  6
Continuous
 62
     7
370
    25
100
AcDbLine
 10
37.2645273685
 20
-38.0849076163
 30
0.0
 11
-71.6299169342
 21
24.7785169941
 31
0.0
  0
LINE
  5
1BF
330
171
100
AcDbEntity
  8
0
  6
Continuous
 62
     7
370
    25
100
AcDbLine
 10
37.2645273685
 20
-38.0849076163
 30
0.0
 11
37.2645273685
 21
-42.9833562872
 31
0.0
  0
LINE
  5
1C0
330
171
100
AcDbEntity
  8
0
  6
Continuous
 62
     7
370
    25
100
AcDbLine
 10
54.4472221514
 20
-28.1655490576
 30
0.0
 11
37.2645273685
 21
-38.0849076163
 31
0.0
  0
LINE
  5
1C1
330
171
100
AcDbEntity
  8
0
  6
Continuous
 62
     7
370
    25
100
AcDbLine
 10
58.6898628385
 20
-30.6147733931
 30
0.0
 11
54.4472221514
 21
-28.1655490576
 31
0.0
  0
LINE
  5
1C2
330
171
100
AcDbEntity
  8
0
  6
Continuous
 62
     7
370
    25
100
AcDbLine
 10
-71.6299169342
 20
24.7785169941
 30
0.0
 11
-54.4472221514
 21
34.6978755527
 31
0.0
  0
LINE
  5
1C3
330
171
100
AcDbEntity
  8
0
  6
Continuous
 62
     7
370
    25
100
AcDbLine
 10
-58.6898628385
 20
37.1470998882
 30
0.0
 11
-80.1151983084
 21
24.7785169941
 31
0.0
  0
LINE
  5
1C4
330
171
100
AcDbEntity
  8
0
  6
Continuous
 62
     7
370
    25
100
AcDbLine
 10
-58.6898628385
 20
37.1470998882
 30
0.0
 11
-54.4472221514
 21
34.6978755527
 31
0.0
  0
LINE
  5
1C5
330
171
100
AcDbEntity
  8
0
  6
Continuous
 62
     7
370
    25
100
AcDbLine
 10
-53.7401153702
 20
33.4731306849
 30
0.0
 11
-69.5085965906
 21
24.3701802381
 31
0.0
  0
LINE
  5
1C6
330
171
100
AcDbEntity
  8
0
  6
Continuous
 62
     7
370
    25
100
AcDbLine
 10
-53.7401153702
 20
33.4731306849
 30
0.0
 11
-53.7401153702
 21
28.5738858136
 31
0.0
  0
LINE
  5
1C7
330
171
100
AcDbEntity
  8
0
  6
Continuous
 62
     8
370
    25
100
AcDbLine
 10
-69.5085965906
 20
24.3701802381
 30
0.0
 11
-69.5085965906
 21
23.8920332755
 31
0.0
  0
LINE
  5
1C8
330
171
100
AcDbEntity
  8
0
  6
Continuous
 62
     8
370
    25
100
AcDbLine
 10
-65.6793985874
 20
21.6814843212
 30
0.0
 11
-53.7401153702
 21
28.5738858136
 31
0.0
  0
ARC
  5
1C9
330
171
100
AcDbEntity
  8
0
  6
Continuous
 62
     7
370
    25
100
AcDbCircle
 10
37.2645273685
 20
-48.6991419704
 30
0.0
 40
0.9999999999999685
100
AcDbArc
 50
240.0026882664
 51
299.9973117337
  0
ARC
  5
1CA
330
171
100
AcDbEntity
  8
0
  6
Continuous
 62
     7
370
    25
100
AcDbCircle
 10
37.2645273685
 20
-36.592109906
 30
0.0
 40
0.9999999999999782
100
AcDbArc
 50
241.0545857734
 51
298.8641559702
  0
ARC
  5
1CB
330
171
100
AcDbEntity
  8
0
  6
Continuous
 62
     7
370
    25
100
AcDbCircle
 10
-80.1151983084
 20
23.9619761822
 30
0.0
 40
0.9999999999999858
100
AcDbArc
 50
119.9973117337
 51
180.0
  0
ARC
  5
1CC
330
171
100
AcDbEntity
  8
0
  6
Continuous
 62
     7
370
    25
100
AcDbCircle
 10
-80.1151983084
 20
19.0627313109
 30
0.0
 40
1.000000000000014
100
AcDbArc
 50
180.0
 51
240.0026882664
  0
ARC
  5
1CD
330
171
100
AcDbEntity
  8
0
  6
Continuous
 62
     7
370
    25
100
AcDbCircle
 10
38.0926366887
 20
-44.2779620073
 30
0.0
 40
1.536804807572108
100
AcDbArc
 50
122.60547834
 51
177.3945215143
  0
ARC
  5
1CE
330
171
100
AcDbEntity
  8
0
  6
Continuous
 62
     7
370
    25
100
AcDbCircle
 10
36.4364180483
 20
-44.2779620073
 30
0.0
 40
1.536804807572108
100
AcDbArc
 50
2.6054784857
 51
57.39452166
  0
ARC
  5
1CF
330
171
100
AcDbEntity
  8
0
  6
Continuous
 62
     7
370
    25
100
AcDbCircle
 10
37.2645273685
 20
-42.8433900701
 30
0.0
 40
1.537021907911794
100
AcDbArc
 50
242.6096722366
 51
297.3903277634
  0
ARC
  5
1D0
330
171
100
AcDbEntity
  8
0
  6
Continuous
 62
     7
370
    25
100
AcDbCircle
 10
37.2645273685
 20
-47.7426349414
 30
0.0
 40
1.537021907911775
100
AcDbArc
 50
242.6096722366
 51
297.3903277634
  0
ARC
  5
1D1
330
171
100
AcDbEntity
  8
0
  6
Continuous
 62
     7
370
    25
100
AcDbCircle
 10
-79.2870889883
 20
23.483911274
 30
0.0
 40
1.536804807572031
100
AcDbArc
 50
122.60547834
 51
177.3945215143
  0
ARC
  5
1D2
330
171
100
AcDbEntity
  8
0
  6
Continuous
 62
     7
370
    25
100
AcDbCircle
 10
57.8617535183
 20
-31.9093791132
 30
0.0
 40
1.536804807572035
100
AcDbArc
 50
2.6054784857
 51
57.39452166
  0
ARC
  5
1D3
330
171
100
AcDbEntity
  8
0
  6
Continuous
 62
     7
370
    25
100
AcDbCircle
 10
58.9212840638
 20
-36.7993271608
 30
0.0
 40
0.4795255463992019
100
AcDbArc
 50
304.0563508304
 51
7.255829563
  0
ARC
  5
1D4
330
171
100
AcDbEntity
  8
0
  6
Continuous
 62
     7
370
    25
100
AcDbCircle
 10
54.1543020965
 20
-28.5744303867
 30
0.0
 40
0.5029772359017975
100
AcDbArc
 50
54.3824225248
 51
114.3071190461
  0
ARC
  5
1D5
330
171
100
AcDbEntity
  8
0
  6
Continuous
 62
     7
370
    25
100
AcDbCircle
 10
-55.2753314715
 20
33.4032698327
 30
0.0
 40
1.536804807572071
100
AcDbArc
 50
2.6054784857
 51
57.39452166
  0
ARC
  5
1D6
330
171
100
AcDbEntity
  8
0
  6
Continuous
 62
     7
370
    25
100
AcDbCircle
 10
-58.9827828933
 20
36.7382185591
 30
0.0
 40
0.5029772359017622
100
AcDbArc
 50
54.3824225248
 51
114.3071190461
  0
ARC
  5
1D7
330
171
100
AcDbEntity
  8
0
  6
Continuous
 62
     7
370
    25
100
AcDbCircle
 10
-54.2158009261
 20
28.513321785
 30
0.0
 40
0.4795255464426678
100
AcDbArc
 50
304.0563508336
 51
7.2558295598
  0
ARC
  5
1D8
330
171
100
AcDbEntity
  8
0
  6
Continuous
 62
     8
370
    25
100
AcDbCircle
 10
37.4959485939
 20
-49.1679100549
 30
0.0
 40
0.4795255463558268
100
AcDbArc
 50
304.0563508272
 51
7.2558295662
  0
ARC
  5
1D9
330
171
100
AcDbEntity
  8
0
  6
Continuous
 62
     8
370
    25
100
AcDbCircle
 10
37.0474224898
 20
-49.1614327637
 30
0.0
 40
0.492977930057103
100
AcDbArc
 50
173.7011524854
 51
234.9866671213
  0
ARC
  5
1DA
330
171
100
AcDbEntity
  8
0
  6
Continuous
 62
     8
370
    25
100
AcDbCircle
 10
-80.3466195337
 20
18.5939632264
 30
0.0
 40
0.4795255464267308
100
AcDbArc
 50
172.744170439
 51
235.9436491676
  0
ARC
  5
1DB
330
171
100
AcDbEntity
  8
0
  6
Continuous
 62
     8
370
    25
100
AcDbCircle
 10
35.7127358082
 20
-38.8099922869
 30
0.0
 40
1.712835317921834
100
AcDbArc
 50
25.0446378574
 51
52.1142928499
  0
ARC
  5
1DC
330
171
100
AcDbEntity
  8
0
  6
Continuous
 62
     8
370
    25
100
AcDbCircle
 10
-72.4957736487
 20
19.9223703561
 30
0.0
 40
4.932734334974559
100
AcDbArc
 50
61.3407798975
 51
79.8903342115
  0
ARC
  5
1DD
330
171
100
AcDbEntity
  8
0
  6
Continuous
 62
     8
370
    25
100
AcDbCircle
 10
38.9124925053
 20
-38.8867102266
 30
0.0
 40
1.832669233076107
100
AcDbArc
 50
128.7858905127
 51
154.0551787799
  0
ARC
  5
1DE
330
171
100
AcDbEntity
  8
0
  6
Continuous
 62
     8
370
    25
100
AcDbCircle
 10
-69.2739371225
 20
23.8801514268
 30
0.0
 40
0.5433169442431031
100
AcDbArc
 50
115.588302361
 51
161.3638934966
  0
ARC
  5
1DF
330
171
100
AcDbEntity
  8
0
  6
Continuous
 62
     8
370
    25
100
AcDbCircle
 10
-80.4081183633
 20
24.369635665
 30
0.0
 40
0.5029772359016658
100
AcDbArc
 50
54.3824225248
 51
114.3071190461
  0
ARC
  5
1E0
330
171
100
AcDbEntity
  8
0
  6
Continuous
 62
     8
370
    25
100
AcDbCircle
 10
-80.6147412459
 20
24.0118825591
 30
0.0
 40
0.5029392784938163
100
AcDbArc
 50
185.6947992512
 51
245.6253417064
  0
ARC
  5
1E1
330
171
100
AcDbEntity
  8
0
  6
Continuous
 62
     8
370
    25
100
AcDbCircle
 10
-80.6147412459
 20
19.1126376878
 30
0.0
 40
0.5029392784938195
100
AcDbArc
 50
185.6947992512
 51
245.6253417064
  0
VIEWPORT
  5
2C0
330
171
100
AcDbEntity
  8
0
100
AcDbViewport
 10
0.0
 20
0.0
 30
0.0
 40
205.6
 41
156.0
 68
     1
 69
     1
 12
0.0
 22
15.65
 13
0.0
 23
0.0
 14
10.0
 24
10.0
 15
10.0
 25
10.0
 16
0.0
 26
0.0
 36
1.0
 17
0.0
 27
0.0
 37
0.0
 42
50.0
 43
0.0
 44
0.0
 45
130.020233463
 50
0.0
 51
0.0
 72
   100
 90
   557152
  1

281
     0
 71
     1
 74
     0
110
0.0
120
0.0
130
0.0
111
1.0
121
0.0
131
0.0
112
0.0
122
1.0
132
0.0
 79
     0
146
0.0
  0
ENDBLK
  5
174
330
171
100
AcDbEntity
  8
0
100
AcDbBlockEnd
  0
BLOCK
  5
1E4
330
1E2
100
AcDbEntity
  8
0
100
AcDbBlockBegin
  2
*Paper_Space5
 70
     0
 10
0.0
 20
0.0
 30
0.0
  3
*Paper_Space5
  1

  0
SPLINE
  5
1EB
330
1E2
100
AcDbEntity
  8
0
  6
Continuous
 62
     7
370
    25
100
AcDbSpline
210
0.0
220
0.0
230
1.0
 70
     8
 71
     3
 72
    11
 73
     7
 74
     0
 42
0.000000001
 43
0.00000001
 40
0.0
 40
0.0
 40
0.0
 40
0.0
 40
0.2265549299743138
 40
0.5493008406950027
 40
0.8849802462508402
 40
1.0
 40
1.0
 40
1.0
 40
1.0
 10
56.79297657148824
 20
-25.56634509534993
 30
0.0
 10
56.75017250408403
 20
-25.60648381127964
 30
0.0
 10
56.64639056381475
 20
-25.7038033902758
 30
0.0
 10
56.39741238431886
 20
-25.79618143469972
 30
0.0
 10
56.16396836787644
 20
-25.80722921511481
 30
0.0
 10
56.06751295902225
 20
-25.77567234791889
 30
0.0
 10
56.04289725441058
 20
-25.76761894240652
 30
0.0
  0
LWPOLYLINE
  5
20C
330
1E2
100
AcDbEntity
  8
0
  6
Continuous
 62
     7
370
    25
100
AcDbPolyline
 90
       10
 70
   128
 43
0.0
 10
-79.4408933202
 20
10.8679742281
 10
-79.1252341174
 20
10.9714094491
 10
-78.8191660598
 20
11.0456572485
 10
-78.5319888704
 20
11.0884616446
 10
-78.2724282828
 20
11.0985220474
 10
-78.048370914
 20
11.0755327767
 10
-77.8666246339
 20
11.0201923499
 10
-77.7327117113
 20
10.9341822577
 10
-77.6507010224
 20
10.8201158734
 10
-77.6230844206
 20
10.6814590463
  0
LWPOLYLINE
  5
213
330
1E2
100
AcDbEntity
  8
0
  6
Continuous
 62
     8
370
    25
100
AcDbPolyline
 90
        6
 70
   128
 43
0.0
 10
-88.0142697727
 20
3.1214354437
 10
-88.0053023517
 20
2.9629628768
 10
-87.9787447016
 20
2.8280852775
 10
-87.9356174179
 20
2.7219859162
 10
-87.8775778581
 20
2.6487421319
 10
-87.8098395755
 20
2.6119486115
  0
LWPOLYLINE
  5
218
330
1E2
100
AcDbEntity
  8
0
  6
Continuous
 62
     8
370
    25
100
AcDbPolyline
 90
        7
 70
   128
 43
0.0
 10
-88.5475743838
 20
8.7199482547
 10
-88.5422232425
 20
8.6667379469
 10
-88.5029559093
 20
8.5678191012
 10
-88.4269737999
 20
8.4747464935
 10
-88.317196864
 20
8.391096852
 10
-88.1778437679
 20
8.3200847855
 10
-88.0142697727
 20
8.2644392479
  0
LWPOLYLINE
  5
219
330
1E2
100
AcDbEntity
  8
0
  6
Continuous
 62
     8
370
    25
100
AcDbPolyline
 90
        7
 70
   128
 43
0.0
 10
-88.5475743838
 20
3.5769444505
 10
-88.5422232425
 20
3.5237341427
 10
-88.5029559093
 20
3.424815297
 10
-88.4269737999
 20
3.3317426893
 10
-88.317196864
 20
3.2480930478
 10
-88.1778437679
 20
3.1770809813
 10
-88.0142697727
 20
3.1214354437
  0
LWPOLYLINE
  5
21A
330
1E2
100
AcDbEntity
  8
0
  6
Continuous
 62
     8
370
    25
100
AcDbPolyline
 90
        3
 70
   128
 43
0.0
 10
-77.6230844206
 20
10.6814590463
 10
-77.6971383281
 20
10.5879750843
 10
-77.7042281621
 20
10.5750924481
  0
LINE
  5
21D
330
1E2
100
AcDbEntity
  8
0
  6
Continuous
 62
     7
370
    25
100
AcDbLine
 10
-87.8098395755
 20
2.6119486115
 30
0.0
 11
59.003568623
 21
-37.288789906
 31
0.0
  0
LINE
  5
21E
330
1E2
100
AcDbEntity
  8
0
  6
Continuous
 62
     7
370
    25
100
AcDbLine
 10
59.9643119733
 20
-37.0394254399
 30
0.0
 11
74.1051822579
 21
-23.2375025338
 31
0.0
  0
LINE
  5
21F
330
1E2
100
AcDbEntity
  8
0
  6
Continuous
 62
     7
370
    25
100
AcDbLine
 10
56.0277434114
 20
-25.7703918961
 30
0.0
 11
-78.1846089301
 21
10.7056496475
 31
0.0
  0
LINE
  5
220
330
1E2
100
AcDbEntity
  8
0
  6
Continuous
 62
     7
370
    25
100
AcDbLine
 10
67.4017172105
 20
-15.2210406156
 30
0.0
 11
56.7981740688
 21
-25.5704237886
 31
0.0
  0
LINE
  5
221
330
1E2
100
AcDbEntity
  8
0
  6
Continuous
 62
     7
370
    25
100
AcDbLine
 10
-88.5475743838
 20
8.7199482547
 30
0.0
 11
-88.5475743838
 21
3.5769444505
 31
0.0
  0
LINE
  5
222
330
1E2
100
AcDbEntity
  8
0
  6
Continuous
 62
     7
370
    25
100
AcDbLine
 10
-74.1051822579
 20
23.2375025338
 30
0.0
 11
-88.2460525425
 21
9.4355796276
 31
0.0
  0
LINE
  5
223
330
1E2
100
AcDbEntity
  8
0
  6
Continuous
 62
     7
370
    25
100
AcDbLine
 10
-73.3689353677
 20
9.3968527607
 30
0.0
 11
-67.4017172105
 21
15.2210406156
 31
0.0
  0
LINE
  5
224
330
1E2
100
AcDbEntity
  8
0
  6
Continuous
 62
     7
370
    25
100
AcDbLine
 10
-87.5475743838
 20
9.5771155554
 30
0.0
 11
59.2658338146
 21
-30.3236229621
 31
0.0
  0
LINE
  5
225
330
1E2
100
AcDbEntity
  8
0
  6
Continuous
 62
     7
370
    25
100
AcDbLine
 10
58.7991384257
 20
-31.6362992696
 30
0.0
 11
-88.0142697727
 21
8.2644392479
 31
0.0
  0
LINE
  5
226
330
1E2
100
AcDbEntity
  8
0
  6
Continuous
 62
     7
370
    25
100
AcDbLine
 10
58.7991384257
 20
-36.7793030738
 30
0.0
 11
58.7991384257
 21
-31.6362992696
 31
0.0
  0
LINE
  5
227
330
1E2
100
AcDbEntity
  8
0
  6
Continuous
 62
     7
370
    25
100
AcDbLine
 10
60.1502519363
 20
-31.4211561575
 30
0.0
 11
60.1502519363
 21
-36.5641599617
 31
0.0
  0
LINE
  5
228
330
1E2
100
AcDbEntity
  8
0
  6
Continuous
 62
     7
370
    25
100
AcDbLine
 10
74.2911222209
 20
-17.6192332513
 30
0.0
 11
60.1502519363
 21
-31.4211561575
 31
0.0
  0
LINE
  5
229
330
1E2
100
AcDbEntity
  8
0
  6
Continuous
 62
     7
370
    25
100
AcDbLine
 10
59.2658338146
 20
-30.3236229621
 30
0.0
 11
73.4067040992
 21
-16.521700056
 31
0.0
  0
LINE
  5
22A
330
1E2
100
AcDbEntity
  8
0
  6
Continuous
 62
     7
370
    25
100
AcDbLine
 10
-88.0142697727
 20
8.2644392479
 30
0.0
 11
-88.0142697727
 21
3.1214354437
 31
0.0
  0
LINE
  5
22B
330
1E2
100
AcDbEntity
  8
0
  6
Continuous
 62
     7
370
    25
100
AcDbLine
 10
-88.0142697727
 20
3.1214354437
 30
0.0
 11
58.7991384257
 21
-36.7793030738
 31
0.0
  0
LINE
  5
22C
330
1E2
100
AcDbEntity
  8
0
  6
Continuous
 62
     7
370
    25
100
AcDbLine
 10
-79.4408933202
 20
10.8679742281
 30
0.0
 11
-87.5475743838
 21
9.5771155554
 31
0.0
  0
LINE
  5
22D
330
1E2
100
AcDbEntity
  8
0
  6
Continuous
 62
     7
370
    25
100
AcDbLine
 10
56.7594974182
 20
-26.1483735532
 30
0.0
 11
-79.4408933202
 21
10.8679742281
 31
0.0
  0
LINE
  5
22E
330
1E2
100
AcDbEntity
  8
0
  6
Continuous
 62
     7
370
    25
100
AcDbLine
 10
56.7594974182
 20
-26.1483735532
 30
0.0
 11
59.2658338146
 21
-30.3236229621
 31
0.0
  0
LINE
  5
22F
330
1E2
100
AcDbEntity
  8
0
  6
Continuous
 62
     7
370
    25
100
AcDbLine
 10
68.1001953692
 20
-15.0795046879
 30
0.0
 11
56.7594974182
 21
-26.1483735532
 31
0.0
  0
LINE
  5
230
330
1E2
100
AcDbEntity
  8
0
  6
Continuous
 62
     7
370
    25
100
AcDbLine
 10
73.4067040992
 20
-16.521700056
 30
0.0
 11
68.1001953692
 21
-15.0795046879
 31
0.0
  0
LINE
  5
231
330
1E2
100
AcDbEntity
  8
0
  6
Continuous
 62
     7
370
    25
100
AcDbLine
 10
74.2911222209
 20
-22.7622370556
 30
0.0
 11
74.2911222209
 21
-17.6192332513
 31
0.0
  0
LINE
  5
232
330
1E2
100
AcDbEntity
  8
0
  6
Continuous
 62
     7
370
    25
100
AcDbLine
 10
60.1502519363
 20
-36.5641599617
 30
0.0
 11
74.2911222209
 21
-22.7622370556
 31
0.0
  0
LINE
  5
233
330
1E2
100
AcDbEntity
  8
0
  6
Continuous
 62
     7
370
    25
100
AcDbLine
 10
-79.4408933202
 20
10.8679742281
 30
0.0
 11
-68.1001953692
 21
21.9368430935
 31
0.0
  0
LINE
  5
234
330
1E2
100
AcDbEntity
  8
0
  6
Continuous
 62
     7
370
    25
100
AcDbLine
 10
-73.4067040992
 20
23.3790384616
 30
0.0
 11
-87.5475743838
 21
9.5771155554
 31
0.0
  0
LINE
  5
235
330
1E2
100
AcDbEntity
  8
0
  6
Continuous
 62
     7
370
    25
100
AcDbLine
 10
-73.4067040992
 20
23.3790384616
 30
0.0
 11
-68.1001953692
 21
21.9368430935
 31
0.0
  0
LINE
  5
236
330
1E2
100
AcDbEntity
  8
0
  6
Continuous
 62
     7
370
    25
100
AcDbLine
 10
-67.2157772475
 20
20.8393098981
 30
0.0
 11
-77.6230844206
 21
10.6814590463
 31
0.0
  0
LINE
  5
237
330
1E2
100
AcDbEntity
  8
0
  6
Continuous
 62
     7
370
    25
100
AcDbLine
 10
-67.2157772475
 20
20.8393098981
 30
0.0
 11
-67.2157772475
 21
15.6963060939
 31
0.0
  0
LINE
  5
238
330
1E2
100
AcDbEntity
  8
0
  6
Continuous
 62
     8
370
    25
100
AcDbLine
 10
-77.6230844206
 20
10.6814590463
 30
0.0
 11
-77.6230844206
 21
10.5530393179
 31
0.0
  0
LINE
  5
239
330
1E2
100
AcDbEntity
  8
0
  6
Continuous
 62
     8
370
    25
100
AcDbLine
 10
-73.6043739005
 20
9.460839909
 30
0.0
 11
-67.2157772475
 21
15.6963060939
 31
0.0
  0
ARC
  5
23A
330
1E2
100
AcDbEntity
  8
0
  6
Continuous
 62
     7
370
    25
100
AcDbCircle
 10
59.2658338146
 20
-36.323794067
 30
0.0
 40
1.000000000000008
100
AcDbArc
 50
254.7954868413
 51
314.305033619
  0
ARC
  5
23B
330
1E2
100
AcDbEntity
  8
0
  6
Continuous
 62
     7
370
    25
100
AcDbCircle
 10
-87.5475743838
 20
8.7199482547
 30
0.0
 40
1.000000000000043
100
AcDbArc
 50
134.305033619
 51
180.0
  0
ARC
  5
23C
330
1E2
100
AcDbEntity
  8
0
  6
Continuous
 62
     7
370
    25
100
AcDbCircle
 10
-87.5475743838
 20
3.5769444505
 30
0.0
 40
0.999999999999932
100
AcDbArc
 50
180.0
 51
254.7954868413
  0
ARC
  5
23D
330
1E2
100
AcDbEntity
  8
0
  6
Continuous
 62
     7
370
    25
100
AcDbCircle
 10
60.8440938741
 20
-31.6240414428
 30
0.0
 40
2.044992185835543
100
AcDbArc
 50
140.5129436103
 51
180.3434369839
  0
ARC
  5
23E
330
1E2
100
AcDbEntity
  8
0
  6
Continuous
 62
     7
370
    25
100
AcDbCircle
 10
58.9378797415
 20
-31.4930051687
 30
0.0
 40
1.214499328616522
100
AcDbArc
 50
3.391562315
 51
74.3338098233
  0
ARC
  5
23F
330
1E2
100
AcDbEntity
  8
0
  6
Continuous
 62
     7
370
    25
100
AcDbCircle
 10
59.2575317454
 20
-30.1649264328
 30
0.0
 40
1.541123765478774
100
AcDbArc
 50
252.6960345908
 51
305.398914916
  0
ARC
  5
240
330
1E2
100
AcDbEntity
  8
0
  6
Continuous
 62
     7
370
    25
100
AcDbCircle
 10
-85.9693143244
 20
8.2766970747
 30
0.0
 40
2.044992185835345
100
AcDbArc
 50
140.5129436103
 51
180.3434369839
  0
ARC
  5
241
330
1E2
100
AcDbEntity
  8
0
  6
Continuous
 62
     7
370
    25
100
AcDbCircle
 10
59.2575317454
 20
-35.307930237
 30
0.0
 40
1.541123765478855
100
AcDbArc
 50
252.6960345908
 51
305.398914916
  0
ARC
  5
242
330
1E2
100
AcDbEntity
  8
0
  6
Continuous
 62
     7
370
    25
100
AcDbCircle
 10
73.0787500261
 20
-17.6910822626
 30
0.0
 40
1.214499328616528
100
AcDbArc
 50
3.391562315
 51
74.3338098233
  0
ARC
  5
243
330
1E2
100
AcDbEntity
  8
0
  6
Continuous
 62
     7
370
    25
100
AcDbCircle
 10
73.6458022913
 20
-22.7837717745
 30
0.0
 40
0.6456791429340054
100
AcDbArc
 50
315.354471361
 51
1.9112857848
  0
ARC
  5
244
330
1E2
100
AcDbEntity
  8
0
  6
Continuous
 62
     7
370
    25
100
AcDbCircle
 10
67.8741689193
 20
-15.7583255463
 30
0.0
 40
0.715461888485027
100
AcDbArc
 50
71.583829316
 51
131.326192755
  0
ARC
  5
245
330
1E2
100
AcDbEntity
  8
0
  6
Continuous
 62
     7
370
    25
100
AcDbCircle
 10
-73.632730549
 20
22.7002176031
 30
0.0
 40
0.7154618884850797
100
AcDbArc
 50
71.583829316
 51
131.326192755
  0
ARC
  5
246
330
1E2
100
AcDbEntity
  8
0
  6
Continuous
 62
     7
370
    25
100
AcDbCircle
 10
-68.4281494423
 20
20.7674608869
 30
0.0
 40
1.214499328616544
100
AcDbArc
 50
3.391562315
 51
74.3338098233
  0
ARC
  5
247
330
1E2
100
AcDbEntity
  8
0
  6
Continuous
 62
     7
370
    25
100
AcDbCircle
 10
-67.8610971771
 20
15.674771375
 30
0.0
 40
0.6456791429338601
100
AcDbArc
 50
315.3544713609
 51
1.9112857848
  0
ARC
  5
248
330
1E2
100
AcDbEntity
  8
0
  6
Continuous
 62
     8
370
    25
100
AcDbCircle
 10
59.5049320068
 20
-36.5856946806
 30
0.0
 40
0.6456791429340305
100
AcDbArc
 50
315.354471361
 51
1.9112857848
  0
ARC
  5
249
330
1E2
100
AcDbEntity
  8
0
  6
Continuous
 62
     8
370
    25
100
AcDbCircle
 10
59.3010446354
 20
-36.8736715253
 30
0.0
 40
0.5107007420494757
100
AcDbArc
 50
169.35156043
 51
234.3744174932
  0
ARC
  5
24A
330
1E2
100
AcDbEntity
  8
0
  6
Continuous
 62
     8
370
    25
100
AcDbCircle
 10
55.3415276078
 20
-27.9961829567
 30
0.0
 40
2.329171091778452
100
AcDbArc
 50
52.4981306444
 51
72.8653656714
  0
ARC
  5
24B
330
1E2
100
AcDbEntity
  8
0
  6
Continuous
 62
     8
370
    25
100
AcDbCircle
 10
-79.451870964
 20
5.8404490763
 30
0.0
 40
5.027537136668598
100
AcDbArc
 50
75.4003064953
 51
89.8748943778
  0
ARC
  5
24C
330
1E2
100
AcDbEntity
  8
0
  6
Continuous
 62
     8
370
    25
100
AcDbCircle
 10
61.4638965646
 20
-26.1729249871
 30
0.0
 40
4.704463210843032
100
AcDbArc
 50
172.6419134943
 51
179.7009860926
  0
ARC
  5
24D
330
1E2
100
AcDbEntity
  8
0
  6
Continuous
 62
     8
370
    25
100
AcDbCircle
 10
-87.7736008336
 20
8.898294697
 30
0.0
 40
0.7154618884850381
100
AcDbArc
 50
71.583829316
 51
131.326192755
  0
VIEWPORT
  5
2C2
330
1E2
100
AcDbEntity
  8
0
100
AcDbViewport
 10
0.0
 20
0.0
 30
0.0
 40
205.6
 41
156.0
 68
     1
 69
     1
 12
0.0
 22
15.65
 13
0.0
 23
0.0
 14
10.0
 24
10.0
 15
10.0
 25
10.0
 16
0.0
 26
0.0
 36
1.0
 17
0.0
 27
0.0
 37
0.0
 42
50.0
 43
0.0
 44
0.0
 45
130.020233463
 50
0.0
 51
0.0
 72
   100
 90
   557152
  1

281
     0
 71
     1
 74
     0
110
0.0
120
0.0
130
0.0
111
1.0
121
0.0
131
0.0
112
0.0
122
1.0
132
0.0
 79
     0
146
0.0
  0
ENDBLK
  5
1E5
330
1E2
100
AcDbEntity
  8
0
100
AcDbBlockEnd
  0
BLOCK
  5
250
330
24E
100
AcDbEntity
  8
0
100
AcDbBlockBegin
  2
*Paper_Space6
 70
     0
 10
0.0
 20
0.0
 30
0.0
  3
*Paper_Space6
  1

  0
SPLINE
  5
257
330
24E
100
AcDbEntity
  8
0
  6
Continuous
 62
     7
370
    25
100
AcDbSpline
210
0.0
220
0.0
230
1.0
 70
     8
 71
     3
 72
    11
 73
     7
 74
     0
 42
0.000000001
 43
0.00000001
 40
0.0
 40
0.0
 40
0.0
 40
0.0
 40
0.0633834754110492
 40
0.506584346507858
 40
0.9661302577480249
 40
1.0
 40
1.0
 40
1.0
 40
1.0
 10
63.26363385658951
 20
-12.63841314968605
 30
0.0
 10
63.2598025472461
 20
-12.64244649964733
 30
0.0
 10
63.22918129576988
 20
-12.67468253500402
 30
0.0
 10
63.08622510061612
 20
-12.74798113433137
 30
0.0
 10
62.93897418044002
 20
-12.7555303053427
 30
0.0
 10
62.90627508631889
 20
-12.74778397339589
 30
0.0
 10
62.90403050838159
 20
-12.74725223861087
 30
0.0
  0
LWPOLYLINE
  5
27C
330
24E
100
AcDbEntity
  8
0
  6
Continuous
 62
     8
370
    25
100
AcDbPolyline
 90
        8
 70
   128
 43
0.0
 10
66.8017230456
 20
-23.049912568
 10
66.7914240206
 20
-23.0481203272
 10
66.730299306
 20
-23.0149023501
 10
66.6767230456
 20
-22.9449017689
 10
66.632754145
 20
-22.8408086666
 10
66.6000823044
 20
-22.7066232828
 10
66.5799630843
 20
-22.5475022866
 10
66.5731696551
 20
-22.3695606085
  0
LWPOLYLINE
  5
27D
330
24E
100
AcDbEntity
  8
0
  6
Continuous
 62
     8
370
    25
100
AcDbPolyline
 90
        8
 70
   128
 43
0.0
 10
-88.7056119011
 20
-2.8062730048
 10
-88.6988184719
 20
-2.9842146829
 10
-88.6786992518
 20
-3.1433356791
 10
-88.6460274112
 20
-3.2775210629
 10
-88.6020585106
 20
-3.3816141652
 10
-88.5484822502
 20
-3.4516147464
 10
-88.4873575356
 20
-3.4848327235
 10
-88.4770585106
 20
-3.4866249643
  0
LWPOLYLINE
  5
280
330
24E
100
AcDbEntity
  8
0
  6
Continuous
 62
     8
370
    25
100
AcDbPolyline
 90
        6
 70
   128
 43
0.0
 10
63.2741194804
 20
-12.6320075511
 10
63.2888040339
 20
-12.6241307281
 10
63.3214035255
 20
-12.6357391746
 10
63.357471522
 20
-12.6834209106
 10
63.3959121156
 20
-12.7657271506
 10
63.4355573083
 20
-12.8801570612
  0
LWPOLYLINE
  5
282
330
24E
100
AcDbEntity
  8
0
  6
Continuous
 62
     8
370
    25
100
AcDbPolyline
 90
        8
 70
   128
 43
0.0
 10
-89.3520585106
 20
3.162386027
 10
-89.351567705
 20
3.1519437498
 10
-89.3262508544
 20
3.087146205
 10
-89.2634963384
 20
3.0252400844
 10
-89.1657157777
 20
2.9686044055
 10
-89.0366668247
 20
2.9194156456
 10
-88.881308758
 20
2.8795641012
 10
-88.7056119011
 20
2.8505812448
  0
LWPOLYLINE
  5
283
330
24E
100
AcDbEntity
  8
0
  6
Continuous
 62
     8
370
    25
100
AcDbPolyline
 90
        8
 70
   128
 43
0.0
 10
-89.3520585106
 20
-2.4944682227
 10
-89.351567705
 20
-2.5049104999
 10
-89.3262508544
 20
-2.5697080446
 10
-89.2634963384
 20
-2.6316141652
 10
-89.1657157777
 20
-2.6882498442
 10
-89.0366668247
 20
-2.737438604
 10
-88.881308758
 20
-2.7772901484
 10
-88.7056119011
 20
-2.8062730048
  0
LINE
  5
287
330
24E
100
AcDbEntity
  8
0
  6
Continuous
 62
     7
370
    25
100
AcDbLine
 10
-88.4770585106
 20
-3.4866249643
 30
0.0
 11
66.8017230456
 21
-23.049912568
 31
0.0
  0
LINE
  5
288
330
24E
100
AcDbEntity
  8
0
  6
Continuous
 62
     7
370
    25
100
AcDbLine
 10
67.5881608734
 20
-22.8077558263
 30
0.0
 11
78.3008286059
 21
-13.3600709267
 31
0.0
  0
LINE
  5
289
330
24E
100
AcDbEntity
  8
0
  6
Continuous
 62
     7
370
    25
100
AcDbLine
 10
62.8991194806
 20
-12.7474760279
 30
0.0
 11
-79.8318142597
 21
5.2349313475
 31
0.0
  0
LINE
  5
28A
330
24E
100
AcDbEntity
  8
0
  6
Continuous
 62
     7
370
    25
100
AcDbLine
 10
71.36546687
 20
-5.4961098962
 30
0.0
 11
63.2741194804
 21
-12.6320075511
 31
0.0
  0
LINE
  5
28B
330
24E
100
AcDbEntity
  8
0
  6
Continuous
 62
     7
370
    25
100
AcDbLine
 10
-89.3520585106
 20
3.162386027
 30
0.0
 11
-89.3520585106
 21
-2.4944682227
 31
0.0
  0
LINE
  5
28C
330
24E
100
AcDbEntity
  8
0
  6
Continuous
 62
     7
370
    25
100
AcDbLine
 10
-78.3008286059
 20
13.3600709267
 30
0.0
 11
-89.0134963384
 21
3.912386027
 31
0.0
  0
LINE
  5
28D
330
24E
100
AcDbEntity
  8
0
  6
Continuous
 62
     7
370
    25
100
AcDbLine
 10
-72.682890351
 20
4.3342515954
 30
0.0
 11
-71.36546687
 21
5.4961098962
 31
0.0
  0
LINE
  5
28E
330
24E
100
AcDbEntity
  8
0
  6
Continuous
 62
     7
370
    25
100
AcDbLine
 10
66.5731696551
 20
-22.3695606085
 30
0.0
 11
66.5731696551
 21
-16.7127063588
 31
0.0
  0
LINE
  5
28F
330
24E
100
AcDbEntity
  8
0
  6
Continuous
 62
     7
370
    25
100
AcDbLine
 10
67.8621373923
 20
-16.5187527068
 30
0.0
 11
67.8621373923
 21
-22.1756069565
 31
0.0
  0
LINE
  5
290
330
24E
100
AcDbEntity
  8
0
  6
Continuous
 62
     7
370
    25
100
AcDbLine
 10
-88.3520585106
 20
4.1051950686
 30
0.0
 11
66.9267230456
 21
-15.4580925351
 31
0.0
  0
LINE
  5
291
330
24E
100
AcDbEntity
  8
0
  6
Continuous
 62
     7
370
    25
100
AcDbLine
 10
66.5731696551
 20
-16.7127063588
 30
0.0
 11
-88.7056119011
 21
2.8505812448
 31
0.0
  0
LINE
  5
292
330
24E
100
AcDbEntity
  8
0
  6
Continuous
 62
     7
370
    25
100
AcDbLine
 10
-88.7056119011
 20
2.8505812448
 30
0.0
 11
-88.7056119011
 21
-2.8062730048
 31
0.0
  0
LINE
  5
293
330
24E
100
AcDbEntity
  8
0
  6
Continuous
 62
     7
370
    25
100
AcDbLine
 10
-88.7056119011
 20
-2.8062730048
 30
0.0
 11
66.5731696551
 21
-22.3695606085
 31
0.0
  0
LINE
  5
294
330
24E
100
AcDbEntity
  8
0
  6
Continuous
 62
     7
370
    25
100
AcDbLine
 10
78.5748051248
 20
-7.0710678072
 30
0.0
 11
67.8621373923
 21
-16.5187527068
 31
0.0
  0
LINE
  5
295
330
24E
100
AcDbEntity
  8
0
  6
Continuous
 62
     7
370
    25
100
AcDbLine
 10
66.9267230456
 20
-15.4580925351
 30
0.0
 11
77.6393907781
 21
-6.0104076354
 31
0.0
  0
LINE
  5
296
330
24E
100
AcDbEntity
  8
0
  6
Continuous
 62
     7
370
    25
100
AcDbLine
 10
78.5748051248
 20
-12.7279220568
 30
0.0
 11
78.5748051248
 21
-7.0710678072
 31
0.0
  0
LINE
  5
297
330
24E
100
AcDbEntity
  8
0
  6
Continuous
 62
     7
370
    25
100
AcDbLine
 10
67.8621373923
 20
-22.1756069565
 30
0.0
 11
78.5748051248
 21
-12.7279220568
 31
0.0
  0
LINE
  5
298
330
24E
100
AcDbEntity
  8
0
  6
Continuous
 62
     7
370
    25
100
AcDbLine
 10
-80.6182520872
 20
5.2689169808
 30
0.0
 11
-88.3520585106
 21
4.1051950686
 31
0.0
  0
LINE
  5
299
330
24E
100
AcDbEntity
  8
0
  6
Continuous
 62
     7
370
    25
100
AcDbLine
 10
63.4355573083
 20
-12.8801570612
 30
0.0
 11
-80.6182520872
 21
5.2689169808
 31
0.0
  0
LINE
  5
29A
330
24E
100
AcDbEntity
  8
0
  6
Continuous
 62
     7
370
    25
100
AcDbLine
 10
63.4355573083
 20
-12.8801570612
 30
0.0
 11
66.9267230456
 21
-15.4580925351
 31
0.0
  0
LINE
  5
29B
330
24E
100
AcDbEntity
  8
0
  6
Continuous
 62
     7
370
    25
100
AcDbLine
 10
72.0269046978
 20
-5.3033008545
 30
0.0
 11
63.4355573083
 21
-12.8801570612
 31
0.0
  0
LINE
  5
29C
330
24E
100
AcDbEntity
  8
0
  6
Continuous
 62
     7
370
    25
100
AcDbLine
 10
77.6393907781
 20
-6.0104076354
 30
0.0
 11
72.0269046978
 21
-5.3033008545
 31
0.0
  0
LINE
  5
29D
330
24E
100
AcDbEntity
  8
0
  6
Continuous
 62
     7
370
    25
100
AcDbLine
 10
-80.6182520872
 20
5.2689169808
 30
0.0
 11
-72.0269046978
 21
12.8457731874
 31
0.0
  0
LINE
  5
29E
330
24E
100
AcDbEntity
  8
0
  6
Continuous
 62
     7
370
    25
100
AcDbLine
 10
-77.6393907781
 20
13.5528799683
 30
0.0
 11
-88.3520585106
 21
4.1051950686
 31
0.0
  0
LINE
  5
29F
330
24E
100
AcDbEntity
  8
0
  6
Continuous
 62
     7
370
    25
100
AcDbLine
 10
-77.6393907781
 20
13.5528799683
 30
0.0
 11
-72.0269046978
 21
12.8457731874
 31
0.0
  0
LINE
  5
2A0
330
24E
100
AcDbEntity
  8
0
  6
Continuous
 62
     7
370
    25
100
AcDbLine
 10
-71.091490351
 20
11.7851130157
 30
0.0
 11
-71.091490351
 21
6.128258766
 31
0.0
  0
LINE
  5
2A1
330
24E
100
AcDbEntity
  8
0
  6
Continuous
 62
     8
370
    25
100
AcDbLine
 10
-71.091490351
 20
11.7851130157
 30
0.0
 11
-78.6828377404
 21
5.0901739128
 31
0.0
  0
LINE
  5
2A2
330
24E
100
AcDbEntity
  8
0
  6
Continuous
 62
     8
370
    25
100
AcDbLine
 10
-73.0703516599
 20
4.3830671319
 30
0.0
 11
-71.091490351
 21
6.128258766
 31
0.0
  0
ARC
  5
2A3
330
24E
100
AcDbEntity
  8
0
  6
Continuous
 62
     7
370
    25
100
AcDbCircle
 10
66.9267230456
 20
-22.0577558263
 30
0.0
 40
0.9999999999999365
100
AcDbArc
 50
262.8192442221
 51
311.40962211
  0
ARC
  5
2A4
330
24E
100
AcDbEntity
  8
0
  6
Continuous
 62
     7
370
    25
100
AcDbCircle
 10
-88.3520585106
 20
3.162386027
 30
0.0
 40
0.9999999999998582
100
AcDbArc
 50
131.40962211
 51
180.0
  0
ARC
  5
2A5
330
24E
100
AcDbEntity
  8
0
  6
Continuous
 62
     7
370
    25
100
AcDbCircle
 10
-88.3520585106
 20
-2.4944682227
 30
0.0
 40
0.9999999999999574
100
AcDbArc
 50
180.0
 51
262.8192442221
  0
ARC
  5
2A6
330
24E
100
AcDbEntity
  8
0
  6
Continuous
 62
     7
370
    25
100
AcDbCircle
 10
68.5381431638
 20
-16.5893178913
 30
0.0
 40
1.968843722548501
100
AcDbArc
 50
144.9309440897
 51
183.5931111895
  0
ARC
  5
2A7
330
24E
100
AcDbEntity
  8
0
  6
Continuous
 62
     7
370
    25
100
AcDbCircle
 10
66.7702117557
 20
-16.5389315602
 30
0.0
 40
1.09211207395773
100
AcDbArc
 50
1.0587090425
 51
81.7605351794
  0
ARC
  5
2A8
330
24E
100
AcDbEntity
  8
0
  6
Continuous
 62
     7
370
    25
100
AcDbCircle
 10
66.9412120435
 20
-14.7785682034
 30
0.0
 40
1.968843722643719
100
AcDbArc
 50
259.2261330329
 51
297.8883001309
  0
ARC
  5
2A9
330
24E
100
AcDbEntity
  8
0
  6
Continuous
 62
     7
370
    25
100
AcDbCircle
 10
66.9412120435
 20
-20.435422453
 30
0.0
 40
1.968843722643713
100
AcDbArc
 50
259.2261330329
 51
297.8883001309
  0
ARC
  5
2AA
330
24E
100
AcDbEntity
  8
0
  6
Continuous
 62
     7
370
    25
100
AcDbCircle
 10
-86.7406383924
 20
2.9739697124
 30
0.0
 40
1.968843722548433
100
AcDbArc
 50
144.9309440897
 51
183.5931111895
  0
ARC
  5
2AB
330
24E
100
AcDbEntity
  8
0
  6
Continuous
 62
     7
370
    25
100
AcDbCircle
 10
77.4828794882
 20
-7.0912466605
 30
0.0
 40
1.092112073957696
100
AcDbArc
 50
1.0587090425
 51
81.7605351794
  0
ARC
  5
2AC
330
24E
100
AcDbEntity
  8
0
  6
Continuous
 62
     7
370
    25
100
AcDbCircle
 10
77.7413516329
 20
-12.7421449358
 30
0.0
 40
0.833574839732602
100
AcDbArc
 50
312.158037431
 51
0.9776572489
  0
ARC
  5
2AD
330
24E
100
AcDbEntity
  8
0
  6
Continuous
 62
     7
370
    25
100
AcDbCircle
 10
71.9086116861
 20
-6.1284394955
 30
0.0
 40
0.8335748397239852
100
AcDbArc
 50
81.8415869733
 51
130.6612067915
  0
ARC
  5
2AE
330
24E
100
AcDbEntity
  8
0
  6
Continuous
 62
     7
370
    25
100
AcDbCircle
 10
-77.7576837898
 20
12.7277413273
 30
0.0
 40
0.8335748397239441
100
AcDbArc
 50
81.8415869733
 51
130.6612067915
  0
ARC
  5
2AF
330
24E
100
AcDbEntity
  8
0
  6
Continuous
 62
     7
370
    25
100
AcDbCircle
 10
-72.1834159877
 20
11.7649341623
 30
0.0
 40
1.092112073957714
100
AcDbArc
 50
1.0587090425
 51
81.7605351794
  0
ARC
  5
2B0
330
24E
100
AcDbEntity
  8
0
  6
Continuous
 62
     7
370
    25
100
AcDbCircle
 10
-71.9249438429
 20
6.114035887
 30
0.0
 40
0.8335748397326195
100
AcDbArc
 50
312.158037431
 51
0.9776572489
  0
ARC
  5
2B1
330
24E
100
AcDbEntity
  8
0
  6
Continuous
 62
     8
370
    25
100
AcDbCircle
 10
67.0286839004
 20
-22.1898298355
 30
0.0
 40
0.8335748397327704
100
AcDbArc
 50
312.158037431
 51
0.9776572489
  0
ARC
  5
2B2
330
24E
100
AcDbEntity
  8
0
  6
Continuous
 62
     8
370
    25
100
AcDbCircle
 10
62.5820725572
 20
-15.1800834216
 30
0.0
 40
2.453181094712648
100
AcDbArc
 50
69.6405024108
 51
82.5743748044
  0
ARC
  5
2B3
330
24E
100
AcDbEntity
  8
0
  6
Continuous
 62
     8
370
    25
100
AcDbCircle
 10
-80.4357283642
 20
0.3763737508
 30
0.0
 40
4.895946707910476
100
AcDbArc
 50
82.9145305375
 51
92.1365148734
  0
ARC
  5
2B4
330
24E
100
AcDbEntity
  8
0
  6
Continuous
 62
     8
370
    25
100
AcDbCircle
 10
-88.4703515223
 20
3.2800564277
 30
0.0
 40
0.8335748397239878
100
AcDbArc
 50
81.8415869733
 51
130.6612067915
  0
ARC
  5
2B5
330
24E
100
AcDbEntity
  8
0
  6
Continuous
 62
     8
370
    25
100
AcDbCircle
 10
-79.957234435
 20
3.9648233803
 30
0.0
 40
1.462054874250911
100
AcDbArc
 50
53.5842186196
 51
116.8794926502
  0
VIEWPORT
  5
2C4
330
24E
100
AcDbEntity
  8
0
100
AcDbViewport
 10
0.0
 20
0.0
 30
0.0
 40
205.6
 41
156.0
 68
     1
 69
     1
 12
0.0
 22
15.65
 13
0.0
 23
0.0
 14
10.0
 24
10.0
 15
10.0
 25
10.0
 16
0.0
 26
0.0
 36
1.0
 17
0.0
 27
0.0
 37
0.0
 42
50.0
 43
0.0
 44
0.0
 45
130.020233463
 50
0.0
 51
0.0
 72
   100
 90
   557152
  1

281
     0
 71
     1
 74
     0
110
0.0
120
0.0
130
0.0
111
1.0
121
0.0
131
0.0
112
0.0
122
1.0
132
0.0
 79
     0
146
0.0
  0
ENDBLK
  5
251
330
24E
100
AcDbEntity
  8
0
100
AcDbBlockEnd
  0
ENDSEC
  0
SECTION
  2
ENTITIES
  0
LINE
  5
93
330
1F
100
AcDbEntity
  8
0
  6
Continuous
 62
     7
370
    25
100
AcDbLine
 10
-83.0
 20
31.3
 30
0.0
 11
-83.0
 21
0.0
 31
0.0
  0
LINE
  5
94
330
1F
100
AcDbEntity
  8
0
  6
Continuous
 62
     7
370
    25
100
AcDbLine
 10
-77.0
 20
24.3
 30
0.0
 11
-83.0
 21
30.3
 31
0.0
  0
LINE
  5
95
330
1F
100
AcDbEntity
  8
0
  6
Continuous
 62
     7
370
    25
100
AcDbLine
 10
-77.0
 20
0.0
 30
0.0
 11
-77.0
 21
24.3
 31
0.0
  0
LINE
  5
96
330
1F
100
AcDbEntity
  8
0
  6
Continuous
 62
     7
370
    25
100
AcDbLine
 10
-84.0
 20
0.0
 30
0.0
 11
-76.0
 21
0.0
 31
0.0
  0
LINE
  5
97
330
1F
100
AcDbEntity
  8
0
  6
Continuous
 62
     7
370
    25
100
AcDbLine
 10
77.0
 20
24.3
 30
0.0
 11
77.0
 21
0.0
 31
0.0
  0
LINE
  5
98
330
1F
100
AcDbEntity
  8
0
  6
Continuous
 62
     7
370
    25
100
AcDbLine
 10
77.0
 20
24.3
 30
0.0
 11
83.0
 21
30.3
 31
0.0
  0
LINE
  5
99
330
1F
100
AcDbEntity
  8
0
  6
Continuous
 62
     7
370
    25
100
AcDbLine
 10
83.0
 20
0.0
 30
0.0
 11
83.0
 21
31.3
 31
0.0
  0
LINE
  5
9A
330
1F
100
AcDbEntity
  8
0
  6
Continuous
 62
     7
370
    25
100
AcDbLine
 10
84.0
 20
0.0
 30
0.0
 11
76.0
 21
0.0
 31
0.0
  0
LINE
  5
9B
330
1F
100
AcDbEntity
  8
0
  6
Continuous
 62
     7
370
    25
100
AcDbLine
 10
-84.0
 20
0.0
 30
0.0
 11
-84.0
 21
30.3
 31
0.0
  0
LINE
  5
9C
330
1F
100
AcDbEntity
  8
0
  6
Continuous
 62
     7
370
    25
100
AcDbLine
 10
84.0
 20
30.3
 30
0.0
 11
-84.0
 21
30.3
 31
0.0
  0
LINE
  5
9D
330
1F
100
AcDbEntity
  8
0
  6
Continuous
 62
     7
370
    25
100
AcDbLine
 10
-77.0
 20
24.3
 30
0.0
 11
77.0
 21
24.3
 31
0.0
  0
LINE
  5
9E
330
1F
100
AcDbEntity
  8
0
  6
Continuous
 62
     7
370
    25
100
AcDbLine
 10
84.0
 20
30.3
 30
0.0
 11
84.0
 21
0.0
 31
0.0
  0
LINE
  5
9F
330
1F
100
AcDbEntity
  8
0
  6
Continuous
 62
     7
370
    25
100
AcDbLine
 10
-83.0
 20
31.3
 30
0.0
 11
83.0
 21
31.3
 31
0.0
  0
LINE
  5
A0
330
1F
100
AcDbEntity
  8
0
  6
Continuous
 62
     7
370
    25
100
AcDbLine
 10
76.0
 20
0.0
 30
0.0
 11
76.0
 21
22.3
 31
0.0
  0
LINE
  5
A1
330
1F
100
AcDbEntity
  8
0
  6
Continuous
 62
     7
370
    25
100
AcDbLine
 10
77.0
 20
24.3
 30
0.0
 11
76.0
 21
22.3
 31
0.0
  0
LINE
  5
A2
330
1F
100
AcDbEntity
  8
0
  6
Continuous
 62
     7
370
    25
100
AcDbLine
 10
-76.0
 20
22.3
 30
0.0
 11
-77.0
 21
24.3
 31
0.0
  0
LINE
  5
A3
330
1F
100
AcDbEntity
  8
0
  6
Continuous
 62
     7
370
    25
100
AcDbLine
 10
-76.0
 20
22.3
 30
0.0
 11
-76.0
 21
0.0
 31
0.0
  0
LINE
  5
A4
330
1F
100
AcDbEntity
  8
0
  6
Continuous
 62
     7
370
    25
100
AcDbLine
 10
-77.0
 20
24.3
 30
0.0
 11
-75.0
 21
23.3
 31
0.0
  0
LINE
  5
A5
330
1F
100
AcDbEntity
  8
0
  6
Continuous
 62
     7
370
    25
100
AcDbLine
 10
75.0
 20
23.3
 30
0.0
 11
77.0
 21
24.3
 31
0.0
  0
LINE
  5
A6
330
1F
100
AcDbEntity
  8
0
  6
Continuous
 62
     7
370
    25
100
AcDbLine
 10
75.0
 20
23.3
 30
0.0
 11
-75.0
 21
23.3
 31
0.0
  0
ARC
  5
A7
330
1F
100
AcDbEntity
  8
0
  6
Continuous
 62
     7
370
    25
100
AcDbCircle
 10
83.0
 20
30.3
 30
0.0
 40
0.9999999999999858
100
AcDbArc
 50
0.0
 51
90.0
  0
ARC
  5
A8
330
1F
100
AcDbEntity
  8
0
  6
Continuous
 62
     7
370
    25
100
AcDbCircle
 10
-83.0
 20
30.3
 30
0.0
 40
0.9999999999999858
100
AcDbArc
 50
90.0
 51
180.0
  0
ARC
  5
A9
330
1F
100
AcDbEntity
  8
0
  6
Continuous
 62
     7
370
    25
100
AcDbCircle
 10
-75.0
 20
22.3
 30
0.0
 40
1.000000000000018
100
AcDbArc
 50
90.0
 51
180.0
  0
ARC
  5
AA
330
1F
100
AcDbEntity
  8
0
  6
Continuous
 62
     7
370
    25
100
AcDbCircle
 10
75.0
 20
22.3
 30
0.0
 40
1.000000000000014
100
AcDbArc
 50
0.0
 51
90.0
  0
CIRCLE
  5
B3
330
1B
100
AcDbEntity
 67
     1
  8
0
  6
Continuous
 62
     7
370
    25
100
AcDbCircle
 10
80.0
 20
0.0
 30
0.0
 40
1.999999999999943
  0
CIRCLE
  5
BC
330
1B
100
AcDbEntity
 67
     1
  8
0
  6
Continuous
 62
     7
370
    25
100
AcDbCircle
 10
-80.0
 20
0.0
 30
0.0
 40
2.0
  0
LWPOLYLINE
  5
BD
330
1B
100
AcDbEntity
 67
     1
  8
0
  6
Continuous
 62
     7
370
    25
100
AcDbPolyline
 90
        9
 70
   128
 43
0.0
 10
-75.0
 20
-3.0
 10
-75.0384294392
 20
-3.195090322
 10
-75.152240935
 20
-3.3826834324
 10
-75.3370607754
 20
-3.555570233
 10
-75.5857864376
 20
-3.7071067812
 10
-75.888859534
 20
-3.8314696123
 10
-76.2346331353
 20
-3.9238795325
 10
-76.609819356
 20
-3.9807852804
 10
-77.0
 20
-4.0
  0
LWPOLYLINE
  5
C1
330
1B
100
AcDbEntity
 67
     1
  8
0
  6
Continuous
 62
     7
370
    25
100
AcDbPolyline
 90
       10
 70
   128
 43
0.0
 10
-77.0
 20
4.0
 10
-76.6527036447
 20
3.984807753
 10
-76.3159597133
 20
3.9396926208
 10
-76.0
 20
3.8660254038
 10
-75.7144247806
 20
3.7660444431
 10
-75.4679111138
 20
3.6427876097
 10
-75.2679491924
 20
3.5
 10
-75.1206147584
 20
3.3420201433
 10
-75.030384494
 20
3.1736481777
 10
-75.0
 20
3.0
  0
LWPOLYLINE
  5
C5
330
1B
100
AcDbEntity
 67
     1
  8
0
  6
Continuous
 62
     7
370
    25
100
AcDbPolyline
 90
        9
 70
   128
 43
0.0
 10
77.0
 20
-4.0
 10
76.609819356
 20
-3.9807852804
 10
76.2346331353
 20
-3.9238795325
 10
75.888859534
 20
-3.8314696123
 10
75.5857864376
 20
-3.7071067812
 10
75.3370607754
 20
-3.555570233
 10
75.152240935
 20
-3.3826834324
 10
75.0384294392
 20
-3.195090322
 10
75.0
 20
-3.0
  0
LWPOLYLINE
  5
C6
330
1B
100
AcDbEntity
 67
     1
  8
0
  6
Continuous
 62
     7
370
    25
100
AcDbPolyline
 90
       10
 70
   128
 43
0.0
 10
75.0
 20
3.0
 10
75.030384494
 20
3.1736481777
 10
75.1206147584
 20
3.3420201433
 10
75.2679491924
 20
3.5
 10
75.4679111138
 20
3.6427876097
 10
75.7144247806
 20
3.7660444431
 10
76.0
 20
3.8660254038
 10
76.3159597133
 20
3.9396926208
 10
76.6527036447
 20
3.984807753
 10
77.0
 20
4.0
  0
LINE
  5
CB
330
1B
100
AcDbEntity
 67
     1
  8
0
  6
Continuous
 62
     7
370
    25
100
AcDbLine
 10
76.0
 20
3.0
 30
0.0
 11
76.0
 21
-3.0
 31
0.0
  0
LINE
  5
CC
330
1B
100
AcDbEntity
 67
     1
  8
0
  6
Continuous
 62
     7
370
    25
100
AcDbLine
 10
84.0
 20
-3.0
 30
0.0
 11
84.0
 21
3.0
 31
0.0
  0
LINE
  5
CD
330
1B
100
AcDbEntity
 67
     1
  8
0
  6
Continuous
 62
     7
370
    25
100
AcDbLine
 10
83.0
 20
-4.0
 30
0.0
 11
-83.0
 21
-4.0
 31
0.0
  0
LINE
  5
CE
330
1B
100
AcDbEntity
 67
     1
  8
0
  6
Continuous
 62
     7
370
    25
100
AcDbLine
 10
-84.0
 20
-3.0
 30
0.0
 11
-84.0
 21
3.0
 31
0.0
  0
LINE
  5
CF
330
1B
100
AcDbEntity
 67
     1
  8
0
  6
Continuous
 62
     7
370
    25
100
AcDbLine
 10
-83.0
 20
4.0
 30
0.0
 11
83.0
 21
4.0
 31
0.0
  0
LINE
  5
D0
330
1B
100
AcDbEntity
 67
     1
  8
0
  6
Continuous
 62
     7
370
    25
100
AcDbLine
 10
-76.0
 20
3.0
 30
0.0
 11
-76.0
 21
-3.0
 31
0.0
  0
LINE
  5
D1
330
1B
100
AcDbEntity
 67
     1
  8
0
  6
Continuous
 62
     7
370
    25
100
AcDbLine
 10
-75.0
 20
3.0
 30
0.0
 11
-75.0
 21
-3.0
 31
0.0
  0
LINE
  5
D2
330
1B
100
AcDbEntity
 67
     1
  8
0
  6
Continuous
 62
     7
370
    25
100
AcDbLine
 10
-76.0
 20
-3.0
 30
0.0
 11
76.0
 21
-3.0
 31
0.0
  0
LINE
  5
D3
330
1B
100
AcDbEntity
 67
     1
  8
0
  6
Continuous
 62
     7
370
    25
100
AcDbLine
 10
75.0
 20
-3.0
 30
0.0
 11
75.0
 21
3.0
 31
0.0
  0
LINE
  5
D4
330
1B
100
AcDbEntity
 67
     1
  8
0
  6
Continuous
 62
     7
370
    25
100
AcDbLine
 10
76.0
 20
3.0
 30
0.0
 11
-76.0
 21
3.0
 31
0.0
  0
ARC
  5
D5
330
1B
100
AcDbEntity
 67
     1
  8
0
  6
Continuous
 62
     7
370
    25
100
AcDbCircle
 10
77.0
 20
-3.0
 30
0.0
 40
1.0
100
AcDbArc
 50
180.0
 51
270.0
  0
ARC
  5
D6
330
1B
100
AcDbEntity
 67
     1
  8
0
  6
Continuous
 62
     7
370
    25
100
AcDbCircle
 10
77.0
 20
3.0
 30
0.0
 40
1.0
100
AcDbArc
 50
90.0
 51
180.0
  0
ARC
  5
D7
330
1B
100
AcDbEntity
 67
     1
  8
0
  6
Continuous
 62
     7
370
    25
100
AcDbCircle
 10
83.0
 20
3.0
 30
0.0
 40
0.9999999999999858
100
AcDbArc
 50
0.0
 51
90.0
  0
ARC
  5
D8
330
1B
100
AcDbEntity
 67
     1
  8
0
  6
Continuous
 62
     7
370
    25
100
AcDbCircle
 10
83.0
 20
-3.0
 30
0.0
 40
0.9999999999999929
100
AcDbArc
 50
270.0
 51
0.0
  0
ARC
  5
D9
330
1B
100
AcDbEntity
 67
     1
  8
0
  6
Continuous
 62
     7
370
    25
100
AcDbCircle
 10
-77.0
 20
-3.0
 30
0.0
 40
1.000000000000001
100
AcDbArc
 50
270.0
 51
0.0
  0
ARC
  5
DA
330
1B
100
AcDbEntity
 67
     1
  8
0
  6
Continuous
 62
     7
370
    25
100
AcDbCircle
 10
-83.0
 20
-3.0
 30
0.0
 40
0.9999999999999858
100
AcDbArc
 50
180.0
 51
270.0
  0
ARC
  5
DB
330
1B
100
AcDbEntity
 67
     1
  8
0
  6
Continuous
 62
     7
370
    25
100
AcDbCircle
 10
-83.0
 20
3.0
 30
0.0
 40
0.9999999999999929
100
AcDbArc
 50
90.0
 51
180.0
  0
ARC
  5
DC
330
1B
100
AcDbEntity
 67
     1
  8
0
  6
Continuous
 62
     7
370
    25
100
AcDbCircle
 10
-77.0
 20
3.0
 30
0.0
 40
1.0
100
AcDbArc
 50
0.0
 51
90.0
  0
VIEWPORT
  5
2B6
330
1B
100
AcDbEntity
 67
     1
  8
0
100
AcDbViewport
 10
0.0
 20
0.0
 30
0.0
 40
205.6
 41
156.0
 68
     1
 69
     1
 12
0.0
 22
15.65
 13
0.0
 23
0.0
 14
10.0
 24
10.0
 15
10.0
 25
10.0
 16
0.0
 26
0.0
 36
1.0
 17
0.0
 27
0.0
 37
0.0
 42
50.0
 43
0.0
 44
0.0
 45
130.020233463
 50
0.0
 51
0.0
 72
   100
 90
   557152
  1

281
     0
 71
     1
 74
     0
110
0.0
120
0.0
130
0.0
111
1.0
121
0.0
131
0.0
112
0.0
122
1.0
132
0.0
 79
     0
146
0.0
  0
ENDSEC
  0
SECTION
  2
OBJECTS
  0
DICTIONARY
  5
C
330
0
100
AcDbDictionary
281
     1
  3
ACAD_GROUP
350
D
  3
ACAD_LAYOUT
350
1A
  3
ACAD_MLINESTYLE
350
17
  3
ACAD_PLOTSETTINGS
350
19
  3
ACAD_PLOTSTYLENAME
350
E
  3
ACAD_SCALELIST
350
47
  0
DICTIONARY
  5
D
102
{ACAD_REACTORS
330
C
102
}
330
C
100
AcDbDictionary
281
     1
  0
DICTIONARY
  5
1A
102
{ACAD_REACTORS
330
C
102
}
330
C
100
AcDbDictionary
281
     1
  3
_Back
350
1E
  3
_Bottom
350
136
  3
_Dimetric
350
24F
  3
_Front
350
26
  3
_Isometric
350
172
  3
_Left
350
11A
  3
_Right
350
FE
  3
_Trimetric
350
1E3
  3
Model
350
22
  0
DICTIONARY
  5
17
102
{ACAD_REACTORS
330
C
102
}
330
C
100
AcDbDictionary
281
     1
  3
Standard
350
18
  0
DICTIONARY
  5
19
102
{ACAD_REACTORS
330
C
102
}
330
C
100
AcDbDictionary
281
     1
  0
ACDBDICTIONARYWDFLT
  5
E
102
{ACAD_REACTORS
330
C
102
}
330
C
100
AcDbDictionary
281
     1
  3
Normal
350
F
100
AcDbDictionaryWithDefault
340
F
  0
DICTIONARY
  5
47
102
{ACAD_REACTORS
330
C
102
}
330
C
100
AcDbDictionary
281
     1
  3
A0
350
48
  3
A1
350
49
  3
A2
350
4A
  3
A3
350
4B
  3
A4
350
4C
  3
A5
350
4D
  3
A6
350
4E
  3
A7
350
4F
  3
A8
350
50
  3
A9
350
51
  3
B0
350
52
  3
B1
350
53
  3
B2
350
54
  3
B3
350
55
  3
B4
350
56
  3
B5
350
57
  3
B6
350
58
  3
B7
350
59
  3
B8
350
5A
  3
B9
350
5B
  3
C0
350
5C
  3
C1
350
5D
  3
C2
350
5E
  3
C3
350
5F
  3
C4
350
60
  3
C5
350
61
  3
C6
350
62
  3
C7
350
63
  3
C8
350
64
  3
C9
350
65
  3
D0
350
66
  3
D1
350
67
  3
D2
350
68
  0
LAYOUT
  5
1E
102
{ACAD_REACTORS
330
1A
102
}
330
1A
100
AcDbPlotSettings
  1

  2
none_device
  4
ISO_A4_(210.00_x_297.00_MM)
  6

 40
7.5
 41
20.0
 42
7.5
 43
20.0
 44
210.0
 45
297.0
 46
0.0
 47
0.0
 48
0.0
 49
0.0
140
0.0
141
0.0
142
1.0
143
0.6536964981
 70
   688
 72
     1
 73
     1
 74
     1
  7

 75
     0
147
1.5297619048
148
84.0
149
4.0
100
AcDbLayout
  1
_Back
 70
     1
 71
     1
 10
-97.0739299611
 20
-8.9027237354
 11
97.0739299611
 21
128.373540856
 12
0.0
 22
0.0
 32
0.0
 14
-84.0
 24
-4.0
 34
0.0
 15
84.0
 25
4.0
 35
0.0
146
0.0
 13
0.0
 23
0.0
 33
0.0
 16
1.0
 26
0.0
 36
0.0
 17
0.0
 27
1.0
 37
0.0
 76
     0
330
1B
331
2B6
  0
LAYOUT
  5
136
102
{ACAD_REACTORS
330
1A
102
}
330
1A
100
AcDbPlotSettings
  1

  2
none_device
  4
ISO_A4_(210.00_x_297.00_MM)
  6

 40
7.5
 41
20.0
 42
7.5
 43
20.0
 44
210.0
 45
297.0
 46
0.0
 47
0.0
 48
0.0
 49
0.0
140
0.0
141
0.0
142
1.0
143
0.6536964981
 70
   688
 72
     1
 73
     1
 74
     1
  7

 75
     0
147
1.5297619048
148
84.0
149
4.0
100
AcDbLayout
  1
_Bottom
 70
     1
 71
     5
 10
0.0
 20
0.0
 11
0.0
 21
0.0
 12
0.0
 22
0.0
 32
0.0
 14
0.0
 24
0.0
 34
0.0
 15
0.0
 25
0.0
 35
0.0
146
0.0
 13
0.0
 23
0.0
 33
0.0
 16
1.0
 26
0.0
 36
0.0
 17
0.0
 27
1.0
 37
0.0
 76
     0
330
135
331
2BE
  0
LAYOUT
  5
24F
102
{ACAD_REACTORS
330
1A
102
}
330
1A
100
AcDbPlotSettings
  1

  2
none_device
  4
ISO_A4_(210.00_x_297.00_MM)
  6

 40
7.5
 41
20.0
 42
7.5
 43
20.0
 44
210.0
 45
297.0
 46
0.0
 47
0.0
 48
0.0
 49
0.0
140
0.0
141
0.0
142
1.0
143
0.6536964981
 70
   688
 72
     1
 73
     1
 74
     1
  7

 75
     0
147
1.5297619048
148
84.0
149
4.0
100
AcDbLayout
  1
_Dimetric
 70
     1
 71
     8
 10
0.0
 20
0.0
 11
0.0
 21
0.0
 12
0.0
 22
0.0
 32
0.0
 14
0.0
 24
0.0
 34
0.0
 15
0.0
 25
0.0
 35
0.0
146
0.0
 13
0.0
 23
0.0
 33
0.0
 16
1.0
 26
0.0
 36
0.0
 17
0.0
 27
1.0
 37
0.0
 76
     0
330
24E
331
2C4
  0
LAYOUT
  5
26
102
{ACAD_REACTORS
330
1A
102
}
330
1A
100
AcDbPlotSettings
  1

  2
none_device
  4
ISO_A4_(210.00_x_297.00_MM)
  6

 40
7.5
 41
20.0
 42
7.5
 43
20.0
 44
210.0
 45
297.0
 46
0.0
 47
0.0
 48
0.0
 49
0.0
140
0.0
141
0.0
142
1.0
143
0.6536964981
 70
   688
 72
     1
 73
     1
 74
     1
  7

 75
     0
147
1.5297619048
148
84.0
149
4.0
100
AcDbLayout
  1
_Front
 70
     1
 71
     2
 10
0.0
 20
0.0
 11
0.0
 21
0.0
 12
0.0
 22
0.0
 32
0.0
 14
0.0
 24
0.0
 34
0.0
 15
0.0
 25
0.0
 35
0.0
146
0.0
 13
0.0
 23
0.0
 33
0.0
 16
1.0
 26
0.0
 36
0.0
 17
0.0
 27
1.0
 37
0.0
 76
     0
330
23
331
2B8
  0
LAYOUT
  5
172
102
{ACAD_REACTORS
330
1A
102
}
330
1A
100
AcDbPlotSettings
  1

  2
none_device
  4
ISO_A4_(210.00_x_297.00_MM)
  6

 40
7.5
 41
20.0
 42
7.5
 43
20.0
 44
210.0
 45
297.0
 46
0.0
 47
0.0
 48
0.0
 49
0.0
140
0.0
141
0.0
142
1.0
143
0.6536964981
 70
   688
 72
     1
 73
     1
 74
     1
  7

 75
     0
147
1.5297619048
148
84.0
149
4.0
100
AcDbLayout
  1
_Isometric
 70
     1
 71
     6
 10
0.0
 20
0.0
 11
0.0
 21
0.0
 12
0.0
 22
0.0
 32
0.0
 14
0.0
 24
0.0
 34
0.0
 15
0.0
 25
0.0
 35
0.0
146
0.0
 13
0.0
 23
0.0
 33
0.0
 16
1.0
 26
0.0
 36
0.0
 17
0.0
 27
1.0
 37
0.0
 76
     0
330
171
331
2C0
  0
LAYOUT
  5
11A
102
{ACAD_REACTORS
330
1A
102
}
330
1A
100
AcDbPlotSettings
  1

  2
none_device
  4
ISO_A4_(210.00_x_297.00_MM)
  6

 40
7.5
 41
20.0
 42
7.5
 43
20.0
 44
210.0
 45
297.0
 46
0.0
 47
0.0
 48
0.0
 49
0.0
140
0.0
141
0.0
142
1.0
143
0.6536964981
 70
   688
 72
     1
 73
     1
 74
     1
  7

 75
     0
147
1.5297619048
148
84.0
149
4.0
100
AcDbLayout
  1
_Left
 70
     1
 71
     4
 10
0.0
 20
0.0
 11
0.0
 21
0.0
 12
0.0
 22
0.0
 32
0.0
 14
0.0
 24
0.0
 34
0.0
 15
0.0
 25
0.0
 35
0.0
146
0.0
 13
0.0
 23
0.0
 33
0.0
 16
1.0
 26
0.0
 36
0.0
 17
0.0
 27
1.0
 37
0.0
 76
     0
330
119
331
2BC
  0
LAYOUT
  5
FE
102
{ACAD_REACTORS
330
1A
102
}
330
1A
100
AcDbPlotSettings
  1

  2
none_device
  4
ISO_A4_(210.00_x_297.00_MM)
  6

 40
7.5
 41
20.0
 42
7.5
 43
20.0
 44
210.0
 45
297.0
 46
0.0
 47
0.0
 48
0.0
 49
0.0
140
0.0
141
0.0
142
1.0
143
0.6536964981
 70
   688
 72
     1
 73
     1
 74
     1
  7

 75
     0
147
1.5297619048
148
84.0
149
4.0
100
AcDbLayout
  1
_Right
 70
     1
 71
     3
 10
0.0
 20
0.0
 11
0.0
 21
0.0
 12
0.0
 22
0.0
 32
0.0
 14
0.0
 24
0.0
 34
0.0
 15
0.0
 25
0.0
 35
0.0
146
0.0
 13
0.0
 23
0.0
 33
0.0
 16
1.0
 26
0.0
 36
0.0
 17
0.0
 27
1.0
 37
0.0
 76
     0
330
FD
331
2BA
  0
LAYOUT
  5
1E3
102
{ACAD_REACTORS
330
1A
102
}
330
1A
100
AcDbPlotSettings
  1

  2
none_device
  4
ISO_A4_(210.00_x_297.00_MM)
  6

 40
7.5
 41
20.0
 42
7.5
 43
20.0
 44
210.0
 45
297.0
 46
0.0
 47
0.0
 48
0.0
 49
0.0
140
0.0
141
0.0
142
1.0
143
0.6536964981
 70
   688
 72
     1
 73
     1
 74
     1
  7

 75
     0
147
1.5297619048
148
84.0
149
4.0
100
AcDbLayout
  1
_Trimetric
 70
     1
 71
     7
 10
0.0
 20
0.0
 11
0.0
 21
0.0
 12
0.0
 22
0.0
 32
0.0
 14
0.0
 24
0.0
 34
0.0
 15
0.0
 25
0.0
 35
0.0
146
0.0
 13
0.0
 23
0.0
 33
0.0
 16
1.0
 26
0.0
 36
0.0
 17
0.0
 27
1.0
 37
0.0
 76
     0
330
1E2
331
2C2
  0
LAYOUT
  5
22
102
{ACAD_REACTORS
330
1A
102
}
330
1A
100
AcDbPlotSettings
  1

  2
none_device
  4
ANSI_A_(11.00_x_8.50_Inches)
  6

 40
6.35
 41
19.05
 42
6.35000508
 43
19.05000254
 44
279.4
 45
215.9
 46
133.34999746
 47
63.1328326586
 48
0.0
 49
0.0
140
0.0
141
0.0
142
0.0648214286
143
1.0
 70
  1696
 72
     0
 73
     0
 74
     0
  7

 75
     0
147
0.0179189148
148
-1300.4909072572
149
0.0
100
AcDbLayout
  1
Model
 70
     1
 71
     0
 10
0.0
 20
0.0
 11
420.0
 21
297.0
 12
0.0
 22
0.0
 32
0.0
 14
-84.0
 24
0.0
 34
0.0
 15
84.0
 25
31.3
 35
0.0
146
0.0
 13
0.0
 23
0.0
 33
0.0
 16
1.0
 26
0.0
 36
0.0
 17
0.0
 27
1.0
 37
0.0
 76
     0
330
1F
331
29
  0
MLINESTYLE
  5
18
102
{ACAD_REACTORS
330
17
102
}
330
17
100
AcDbMlineStyle
  2
Standard
 70
     0
  3

 62
   256
 51
90.0
 52
90.0
 71
     2
 49
0.5
 62
   256
  6
BYLAYER
 49
-0.5
 62
   256
  6
BYLAYER
  0
ACDBPLACEHOLDER
  5
F
102
{ACAD_REACTORS
330
E
102
}
330
E
  0
SCALE
  5
48
102
{ACAD_REACTORS
330
47
102
}
330
47
100
AcDbScale
 70
     0
300
1:1
140
1.0
141
1.0
290
     1
  0
SCALE
  5
49
102
{ACAD_REACTORS
330
47
102
}
330
47
100
AcDbScale
 70
     0
300
1:2
140
1.0
141
2.0
290
     0
  0
SCALE
  5
4A
102
{ACAD_REACTORS
330
47
102
}
330
47
100
AcDbScale
 70
     0
300
1:4
140
1.0
141
4.0
290
     0
  0
SCALE
  5
4B
102
{ACAD_REACTORS
330
47
102
}
330
47
100
AcDbScale
 70
     0
300
1:5
140
1.0
141
5.0
290
     0
  0
SCALE
  5
4C
102
{ACAD_REACTORS
330
47
102
}
330
47
100
AcDbScale
 70
     0
300
1:8
140
1.0
141
8.0
290
     0
  0
SCALE
  5
4D
102
{ACAD_REACTORS
330
47
102
}
330
47
100
AcDbScale
 70
     0
300
1:10
140
1.0
141
10.0
290
     0
  0
SCALE
  5
4E
102
{ACAD_REACTORS
330
47
102
}
330
47
100
AcDbScale
 70
     0
300
1:16
140
1.0
141
16.0
290
     0
  0
SCALE
  5
4F
102
{ACAD_REACTORS
330
47
102
}
330
47
100
AcDbScale
 70
     0
300
1:20
140
1.0
141
20.0
290
     0
  0
SCALE
  5
50
102
{ACAD_REACTORS
330
47
102
}
330
47
100
AcDbScale
 70
     0
300
1:30
140
1.0
141
30.0
290
     0
  0
SCALE
  5
51
102
{ACAD_REACTORS
330
47
102
}
330
47
100
AcDbScale
 70
     0
300
1:40
140
1.0
141
40.0
290
     0
  0
SCALE
  5
52
102
{ACAD_REACTORS
330
47
102
}
330
47
100
AcDbScale
 70
     0
300
1:50
140
1.0
141
50.0
290
     0
  0
SCALE
  5
53
102
{ACAD_REACTORS
330
47
102
}
330
47
100
AcDbScale
 70
     0
300
1:100
140
1.0
141
100.0
290
     0
  0
SCALE
  5
54
102
{ACAD_REACTORS
330
47
102
}
330
47
100
AcDbScale
 70
     0
300
2:1
140
2.0
141
1.0
290
     0
  0
SCALE
  5
55
102
{ACAD_REACTORS
330
47
102
}
330
47
100
AcDbScale
 70
     0
300
4:1
140
4.0
141
1.0
290
     0
  0
SCALE
  5
56
102
{ACAD_REACTORS
330
47
102
}
330
47
100
AcDbScale
 70
     0
300
8:1
140
8.0
141
1.0
290
     0
  0
SCALE
  5
57
102
{ACAD_REACTORS
330
47
102
}
330
47
100
AcDbScale
 70
     0
300
10:1
140
10.0
141
1.0
290
     0
  0
SCALE
  5
58
102
{ACAD_REACTORS
330
47
102
}
330
47
100
AcDbScale
 70
     0
300
100:1
140
100.0
141
1.0
290
     0
  0
SCALE
  5
59
102
{ACAD_REACTORS
330
47
102
}
330
47
100
AcDbScale
 70
     0
300
1/128" = 1'-0"
140
0.0078125
141
12.0
290
     0
  0
SCALE
  5
5A
102
{ACAD_REACTORS
330
47
102
}
330
47
100
AcDbScale
 70
     0
300
1/64" = 1'-0"
140
0.015625
141
12.0
290
     0
  0
SCALE
  5
5B
102
{ACAD_REACTORS
330
47
102
}
330
47
100
AcDbScale
 70
     0
300
1/32" = 1'-0"
140
0.03125
141
12.0
290
     0
  0
SCALE
  5
5C
102
{ACAD_REACTORS
330
47
102
}
330
47
100
AcDbScale
 70
     0
300
1/16" = 1'-0"
140
0.0625
141
12.0
290
     0
  0
SCALE
  5
5D
102
{ACAD_REACTORS
330
47
102
}
330
47
100
AcDbScale
 70
     0
300
3/32" = 1'-0"
140
0.09375
141
12.0
290
     0
  0
SCALE
  5
5E
102
{ACAD_REACTORS
330
47
102
}
330
47
100
AcDbScale
 70
     0
300
1/8" = 1'-0"
140
0.125
141
12.0
290
     0
  0
SCALE
  5
5F
102
{ACAD_REACTORS
330
47
102
}
330
47
100
AcDbScale
 70
     0
300
3/16" = 1'-0"
140
0.1875
141
12.0
290
     0
  0
SCALE
  5
60
102
{ACAD_REACTORS
330
47
102
}
330
47
100
AcDbScale
 70
     0
300
1/4" = 1'-0"
140
0.25
141
12.0
290
     0
  0
SCALE
  5
61
102
{ACAD_REACTORS
330
47
102
}
330
47
100
AcDbScale
 70
     0
300
3/8" = 1'-0"
140
0.375
141
12.0
290
     0
  0
SCALE
  5
62
102
{ACAD_REACTORS
330
47
102
}
330
47
100
AcDbScale
 70
     0
300
1/2" = 1'-0"
140
0.5
141
12.0
290
     0
  0
SCALE
  5
63
102
{ACAD_REACTORS
330
47
102
}
330
47
100
AcDbScale
 70
     0
300
3/4" = 1'-0"
140
0.75
141
12.0
290
     0
  0
SCALE
  5
64
102
{ACAD_REACTORS
330
47
102
}
330
47
100
AcDbScale
 70
     0
300
1" = 1'-0"
140
1.0
141
12.0
290
     0
  0
SCALE
  5
65
102
{ACAD_REACTORS
330
47
102
}
330
47
100
AcDbScale
 70
     0
300
1-1/2" = 1'-0"
140
1.5
141
12.0
290
     0
  0
SCALE
  5
66
102
{ACAD_REACTORS
330
47
102
}
330
47
100
AcDbScale
 70
     0
300
3" = 1'-0"
140
3.0
141
12.0
290
     0
  0
SCALE
  5
67
102
{ACAD_REACTORS
330
47
102
}
330
47
100
AcDbScale
 70
     0
300
6" = 1'-0"
140
6.0
141
12.0
290
     0
  0
SCALE
  5
68
102
{ACAD_REACTORS
330
47
102
}
330
47
100
AcDbScale
 70
     0
300
1'-0" = 1'-0"
140
12.0
141
12.0
290
     0
  0
ENDSEC
  0
EOF
